Oops, an error
Loading. Please wait.

Sister tab

82 views 1 this week
no commentswrite comment
1 2 3 4 5
3 more votes to show rating
add to favorites
×
Save as Personal and add changes to this tab that will be seen only by you. Learn more ›
×
You can save this tab as Personal to edit and correct it or add notes. All changes will be seen only by you. Learn more »
launch autoscroll
font size
0
reset
how to read this tab
guitar tuner
edit
Autoscroll
slow
fast
+/-
esc
set tempo
stop
Capo 1

[Intro/Verse] 
(0:00)
    C                                C7
e|--------------------------------|--------------------------------|
B|-----------1-----------1--------|-----------1-----------1--------|
G|-------------0-----(0)---0------|-----3-------3-----(3)---3------|
D|-----0h2-------0h2---------2----|---------------0h2---------2----|
A|--3-----------------------------|--3-----------------------------|
E|--------------------------------|--------------------------------|

    F                                C
e|--------------------------------|--------------------------------|
B|-----------1---------1----------|-----------1----------1---------|
G|-----0h2-------0h2--------2p0---|-------------0----------2p0-----| (x4)
D|-------------3---------3--------|-----0h2-------0h2----------2p0-|
A|--------------------------------|--3-----------------------------|
E|--1-----------------------------|--------------------------------|

[Pre-Chorus] 
(0:42)
    Am                               F
e|--------------------------------|--------------------------------|
B|-----------1-----------1--------|-----------1---------1----------|
G|-----0h2-----2-----(2)---2------|-----0h2-------0h2--------2p0---|
D|---------------0h2---------2----|-------------3---------3--------|
A|--0-----------------------------|--------------------------------|
E|--------------------------------|--1-----------------------------|

    C                                E             E7
e|--------------------------------|--------------------------------|
B|-----------1-----------1--------|-----------0-----------3--------|
G|-------------0-----(0)---0------|-------------1-----(1)---1------|
D|-----0h2-------0h2---------2----|-----0h2-------0h2---------2----|
A|--3-----------------------------|--------------------------------|
E|--------------------------------|--0-----------------------------|

    Am                               F
e|--------------------------------|--------------------------------|
B|-----------1-----------1--------|-----------1---------1----------|
G|-----0h2-----2-----(2)---2------|-----0h2-------0h2--------2p0---|
D|---------------0h2---------2----|-------------3---------3--------|
A|--0-----------------------------|--------------------------------|
E|--------------------------------|--1-----------------------------|

    C                                E                                E7
e|--------------------------------|--------------------------------|--------------------------------|
B|-----------1-----------1--------|-----------0-----------0--------|-----------3-----------3--------|
G|-------------0-----(0)---0------|-------------1-----(1)---1------|-----1-------1-----(1)---1------|
D|-----0h2-------0h2---------2----|-----0h2-------0h2---------2----|---------------0h2---------2----|
A|--3-----------------------------|--------------------------------|--------------------------------|
E|--------------------------------|--0-----------------------------|--0-----------------------------|

[Chorus] 
(1:06)
    F                                C
e|--------------------------------|--------------------------------|
B|-----------1---------1----------|-----------1-----------1--------|
G|-----0h2-------0h2--------2p0---|-------------0-----(0)---0------|
D|-------------3---------3--------|-----0h2-------0h2---------2----|
A|--------------------------------|--3-----------------------------|
E|--1-----------------------------|--------------------------------|

    F                                C
e|--------------------------------|--------------------------------|
B|-----------1---------1----------|-----------1----------1---------|
G|-----0h2-------0h2--------2p0---|-------------0----------2p0-----| 
D|-------------3---------3--------|-----0h2-------0h2----------2p0-|
A|--------------------------------|--3-----------------------------|
E|--1-----------------------------|--------------------------------|

    F                                C
e|--------------------------------|--------------------------------|
B|-----------1---------1----------|-----------1-----------1--------|
G|-----0h2-------0h2--------2p0---|-------------0-----(0)---0------|
D|-------------3---------3--------|-----0h2-------0h2---------2----|
A|--------------------------------|--3-----------------------------|
E|--1-----------------------------|--------------------------------|

    E                                E7
e|--------------------------------|--------------------------------|
B|-----------0-----------0--------|-----------3-----------3--------|
G|-------------1-----(1)---1------|-----1-------1-----(1)---1------|
D|-----0h2-------0h2---------2----|---------------0h2---------2----|
A|--------------------------------|--------------------------------|
E|--0-----------------------------|--0-----------------------------|

[Instrumental/Verse] 
(1:28)
    C                                C7 **
e|--------------------------------|--------------------------------|
B|-----------1-----------1--------|-----------1-----------1--------|
G|-------------0-----(0)---0------|-----3-------3-----(3)---3------|
D|-----0h2-------0h2---------2----|---------------0h2---------2----|
A|--3-----------------------------|--3-----------------------------|
E|--------------------------------|--------------------------------|

    F                                C
e|--------------------------------|--------------------------------|
B|-----------1---------1----------|-----------1----------1---------|
G|-----0h2-------0h2--------2p0---|-------------0----------2p0-----| (x3)
D|-------------3---------3--------|-----0h2-------0h2----------2p0-|
A|--------------------------------|--3-----------------------------|
E|--1-----------------------------|--------------------------------|

[Breakdown]
            C7
e|--------------------------------|
B|-----1-----------------1--------|
G|-----3-------------(3)---3------|
D|-----2---------0h2---------2----|
A|--3--3--------------------------|
E|--------------------------------|

[Pre-Chorus] 
(2:00)
    Am                               F
e|--------------------------------|--------------------------------|
B|-----------1-----------1--------|-----------1---------1----------|
G|-----0h2-----2-----(2)---2------|-----0h2-------0h2--------2p0---|
D|---------------0h2---------2----|-------------3---------3--------|
A|--0-----------------------------|--------------------------------|
E|--------------------------------|--1-----------------------------|

    C                                E             E7
e|--------------------------------|--------------------------------|
B|-----------1-----------1--------|-----------0-----------3--------|
G|-------------0-----(0)---0------|-------------1-----(1)---1------|
D|-----0h2-------0h2---------2----|-----0h2-------0h2---------2----|
A|--3-----------------------------|--------------------------------|
E|--------------------------------|--0-----------------------------|

    Am                               F
e|--------------------------------|--------------------------------|
B|-----------1-----------1--------|-----------1---------1----------|
G|-----0h2-----2-----(2)---2------|-----0h2-------0h2--------2p0---|
D|---------------0h2---------2----|-------------3---------3--------|
A|--0-----------------------------|--------------------------------|
E|--------------------------------|--1-----------------------------|

    C                                E
e|--------------------------------|--------------------------------|
B|-----------1-----------1--------|-----------0-----------0--------|
G|-------------0-----(0)---0------|-------------1-----(1)---1------|
D|-----0h2-------0h2---------2----|-----0h2-------0h2---------2----|
A|--3-----------------------------|--------------------------------|
E|--------------------------------|--0-----------------------------|

[Instrumental/Verse] 
(2:40)
    C                                C7
e|--------------------------------|--------------------------------|
B|-----------1-----------1--------|-----------1-----------1--------|
G|-------------0-----(0)---0------|-----3-------3-----(3)---3------|
D|-----0h2-------0h2---------2----|---------------0h2---------2----|
A|--3-----------------------------|--3-----------------------------|
E|--------------------------------|--------------------------------|

    F                                C
e|--------------------------------|--------------------------------|
B|-----------1---------1----------|-----------1----------1---------|
G|-----0h2-------0h2--------2p0---|-------------0----------2p0-----| (x2)
D|-------------3---------3--------|-----0h2-------0h2----------2p0-|
A|--------------------------------|--3-----------------------------|
E|--1-----------------------------|--------------------------------|

[Pre-Chorus] 
(3:01)
    Am                               F
e|--------------------------------|--------------------------------|
B|-----------1-----------1--------|-----------1---------1----------|
G|-----0h2-----2-----(2)---2------|-----0h2-------0h2--------2p0---|
D|---------------0h2---------2----|-------------3---------3--------|
A|--0-----------------------------|--------------------------------|
E|--------------------------------|--1-----------------------------|

    C                                E             E7
e|--------------------------------|--------------------------------|
B|-----------1-----------1--------|-----------0-----------3--------|
G|-------------0-----(0)---0------|-------------1-----(1)---1------|
D|-----0h2-------0h2---------2----|-----0h2-------0h2---------2----|
A|--3-----------------------------|--------------------------------|
E|--------------------------------|--0-----------------------------|

    Am                               F
e|--------------------------------|--------------------------------|
B|-----------1-----------1--------|-----------1---------1----------|
G|-----0h2-----2-----(2)---2------|-----0h2-------0h2--------2p0---|
D|---------------0h2---------2----|-------------3---------3--------|
A|--0-----------------------------|--------------------------------|
E|--------------------------------|--1-----------------------------|

    C                                E
e|--------------------------------|--------------------------------|
B|-----------1-----------1--------|-----------0-----------0--------|
G|-------------0-----(0)---0------|-------------1-----(1)---1------|
D|-----0h2-------0h2---------2----|-----0h2-------0h2---------2----|
A|--3-----------------------------|--------------------------------|
E|--------------------------------|--0-----------------------------|

[Chorus] 
(3:23)
    F                                C
e|--------------------------------|--------------------------------|
B|-----------1---------1----------|-----------1-----------1--------|
G|-----0h2-------0h2--------2p0---|-------------0-----(0)---0------|
D|-------------3---------3--------|-----0h2-------0h2---------2----|
A|--------------------------------|--3-----------------------------|
E|--1-----------------------------|--------------------------------|

    F                                C
e|--------------------------------|--------------------------------|
B|-----------1---------1----------|-----------1----------1---------|
G|-----0h2-------0h2--------2p0---|-------------0----------2p0-----| 
D|-------------3---------3--------|-----0h2-------0h2----------2p0-|
A|--------------------------------|--3-----------------------------|
E|--1-----------------------------|--------------------------------|

    F                                C
e|--------------------------------|--------------------------------|
B|-----------1---------1----------|-----------1-----------1--------|
G|-----0h2-------0h2--------2p0---|-------------0-----(0)---0------|
D|-------------3---------3--------|-----0h2-------0h2---------2----|
A|--------------------------------|--3-----------------------------|
E|--1-----------------------------|--------------------------------|

    E                                E7
e|--------------------------------|--------------------------------|
B|-----------0-----------0--------|-----------3-----------3--------|
G|-------------1-----(1)---1------|-----1-------1-----(1)---1------|
D|-----0h2-------0h2---------2----|---------------0h2---------2----|
A|--------------------------------|--------------------------------|
E|--0-----------------------------|--0-----------------------------|

[Outro] 
(3:43)
    C                                C7
e|--------------------------------|--------------------------------|
B|-----------1-----------1--------|-----------1-----------1--------|
G|-------------0-----(0)---0------|-----3-------3-----(3)---3------|
D|-----0h2-------0h2---------2----|---------------0h2---------2----|
A|--3-----------------------------|--3-----------------------------|
E|--------------------------------|--------------------------------|

    F                                C
e|--------------------------------|--------------------------------|
B|-----------1---------1----------|-----------1----------1---------|
G|-----0h2-------0h2--------2p0---|-------------0----------2p0-----|
D|-------------3---------3--------|-----0h2-------0h2----------2p0-|
A|--------------------------------|--3-----------------------------|
E|--1-----------------------------|--------------------------------|

    C                                C7
e|--------------------------------|--------------------------------|
B|-----------1-----------1--------|-----------1-----------1--------|
G|-------------0-----(0)---0------|-----3-------3-----(3)---3------|
D|-----0h2-------0h2---------2----|---------------0h2---------2----|
A|--3-----------------------------|--3-----------------------------|
E|--------------------------------|--------------------------------|

    F                                C
e|--------------------------------|--------------------------------|
B|-----------1---------1----------|--1-----------------------------|
G|-----0h2-------0h2--------2p0---|--0-----------------------------|
D|-------------3---------3--------|--2-----------------------------|
A|--------------------------------|--3-----------------------------|
E|--1-----------------------------|--------------------------------|


************************************

| (n)  Ghost note
| h    Hammer-on
| p    Pull-off

************************************

            
            
Suggest correction
Creating personal tab
Creating personal tab
You can edit any tab online and save it as your Personal.

You can edit, replace or remove any tab part or add personal notes – all changes will be seen only by you.

Personal tabs can be accessed anytime from any device, even offline.
Learn more »
Give kudos to tab author, rate the tab!
1 2 3 4 5
comments
print report bad tab
guest
You may want to rate the tab now too:
select rating
Wanna post a correction for this tab? Suggest correction