Oops, an error
Loading. Please wait.

Valentine Girl tab

100 views 1 this week
no commentswrite comment
1 2 3 4 5
2 more votes to show rating
add to favorites
×
Save as Personal and add changes to this tab that will be seen only by you. Learn more ›
×
You can save this tab as Personal to edit and correct it or add notes. All changes will be seen only by you. Learn more »
launch autoscroll
font size
0
reset
how to read this tab
guitar tuner
edit
Autoscroll
slow
fast
+/-
esc
set tempo
stop
Capo 2

[Intro]
(0:00)
e|--3p0----------------1--0---------|-------0----------------0---------|
B|--1-----1--------1------1---------|------1---3p0----1---1--1---------|
G|--0---0----0-----0h2----0-----0---|-----0--------0--0h2----0---------|
D|--2-----------2--3------2---2-----|----2------------3------2----2----| (x2)
A|--3--------------0------3---------|--3-------3------0------3---------|
E|-----------------1----------------|-----------------1----------------|

[Verse 1]
(0:08)
e|--3p0--------------------------x--|-------0----------------0---------|
B|--1-----1--------1-------------x--|------1---3p0----1---1--1---------|
G|--0---0----0-----0h2-----------x--|-----0--------0--0h2----0---------|
D|--2-----------2--3-------------x--|----2------------3------2----2----|
A|--3--------------0-------------x--|--3-------3------0------3---------|
E|-----------------1-------------x--|-----------------1----------------|

e|--3p0----------------1--0---------|-------0----------------0---------|
B|--1-----1--------1------1---------|------1---3p0----1---1--1---------|
G|--0---0----0-----0h2----0-----0---|-----0--------0--0h2----0---------|
D|--2-----------2--3------2---2-----|----2------------3------2---------|
A|--3--------------0------3---------|--3-------3------0------3----2----|
E|-----------------1----------------|-----------------1----------------|

e|------0------------------1--------|---0------------------------------|
B|---1-----1-------1-----------1----|---1------1------0-------0--------|
G|---0-------------0h2--------------|---0----------0--0-----------0----|
D|---2--------2----3----3-----------|---0h2-----------0h2--------------|
A|---0------------------------------|---3---3---------2----2-----------|
E|-----------------1----------------|-----------------0----------------|

e|----------0------1-------------x--|
B|---0h1-------1---1-------------x--|
G|---2-------------0h2-----------x--|
D|---2-------------3-------------x--|
A|---0---0-----------------------x--|
E|-----------------1-------------x--|

[Interlude]
(0:26)
e|--3p0----------------1--0---------|-------0----------------0---------|
B|--1-----1--------1------1---------|------1---3p0----1---1--1---------|
G|--0---0----0-----0h2----0-----0---|-----0--------0--0h2----0---------|
D|--2-----------2--3------2---2-----|----2------------3------2----2----|
A|--3--------------0------3---------|--3-------3------0------3---------|
E|-----------------1----------------|-----------------1----------------|

[Verse 2]
(0:30)
e|--3p0----------------1--0---------|-------0----------------0---------|
B|--1-----1--------1------1---------|------1---3p0----1---1--1---------|
G|--0---0----0-----0h2----0-----0---|-----0--------0--0h2----0---------|
D|--2-----------2--3------2---2-----|----2------------3------2----2----|
A|--3--------------0------3---------|--3-------3------0------3---------|
E|-----------------1----------------|-----------------1----------------|

e|--3p0----------------1--0---------|-------0----------------0---------|
B|--1-----1--------1------1---------|------1---3p0----1---1--1---------|
G|--0---0----0-----0h2----0-----0---|-----0--------0--0h2----0---------|
D|--2-----------2--3------2---2-----|----2------------3------2---------|
A|--3--------------0------3---------|--3-------3------0------3----2----|
E|-----------------1----------------|-----------------1----------------|

e|------0------------------1--------|---0------------------------------|
B|---1-----1-------1-----------1----|---1------1------0-------0--------|
G|---0-------------0h2--------------|---0----------0--0-----------0----|
D|---2--------2----3----3-----------|---0h2-----------0h2--------------|
A|---0------------------------------|---3---3---------2----2-----------|
E|-----------------1----------------|-----------------0----------------|

e|----------0--------------3--------|---------------x------0---0---0---|
B|---0h1-------1---1-----------1----|--1------1-----x------3---3---3---|
G|---2-------------0h2--------------|--0------------x------0---0---0---|
D|---2-------------3----3-----------|--0h2----------x------2---2---2---|
A|---0---0--------------------------|--3------------x------3---3---3---|
E|-----------------1----------------|---------------x------------------|

[Chorus]
(0:48)
(Here he just plays chords, so the strumming pattern is shown.  Every chord on
a count is a downstroke and all the others are upstrokes.  Also, play hammers freely;
they don't happen every time, but there's no real pattern.)
    ↓   ↓ ↑ ↓   ↓ ↑ ↓   ↓ ↑ ↓   ↓ ↑    ↓   ↓     ↑ ↓ ↑ ↓   ↓     ↑ ↓ ↑
e|--0---0-0-0---0-0-0---0-0-0---0-0-|--0---0-----0-0-0-0---0-----0-0-0-|
B|--1---1-1-1---1-1-1---1-1-1---1-1-|--1---1-----1-1-1-1---1-----1-1-1-|
G|--0---0-0-0---0-0-0---0-0-0---0-0-|--0---0-----0-0-0-0---0-----0-0-0-|
D|--2---2-2-0---0-0-2---2-2-2---2-2-|--3---3-----3-3-3-0h2-2-----2-2-2-|
A|--3---3-3-2---2-2-0---0-0-3---3-3-|------------------3---3-----3-3-3-|
E|----------3---3-3-3---3-3---------|--1---1-----1-1-1-----------------|
    1   +   2   +   3   +   4   +   |  1   +   2   +   3   +   4   +   |

    ↓   ↓     ↑ ↓ ↑ ↓   ↓     ↑ ↓ ↑    ↓   ↓     ↑ ↓   ↓       ↓
e|--0---0-----0-0-0-0---0-----0-0-0-|--0---0-----0-0---0-------x-------|
B|--1---1-----1-1-1-1---1-----1-1-1-|--1---1-----1-1---1-------x-------|
G|--0h2-2-----0-0-0-0---0-----0-0-0-|--0---0-----0-0---0-------x-------|
D|--3---3-----3-3-3-0h2-2-----2-2-2-|--0---0-----0-2---0-------x-------| (x2)
A|------------------3---3-----3-3-3-|--2---2-------3---2-------x-------|
E|--1---1-----1-1-1-----------------|--3---3-----------3-------x-------|
    1   +   2   +   3   +   4   +   |  1   +   2   +   3   +   4   +   |

(1:05)
    ↓   ↓     ↑ ↓ ↑ ↓   ↓     ↑ ↓ ↑    ↓   ↓     ↑ ↓ ↑ ↓   ↓ ↑ ↓   ↓ 
e|--0---0-----0-0-0-0---0-----0-0-0-|--0---0-----0-0-0-0---0-0-0---0---|
B|--1---1-----1-1-1-1---1-----1-1-1-|--1---1-----1-1-1-1---1-1-1---1---|
G|--0---0-----0-0-0-0h2-2-----2-2-2-|--0---0-----0-0-0-0---0-0-0---0---|
D|--2---2-----2-2-2-3---3-----3-3-3-|--0h2-2-----2-2-2-0h2-2-2-0---0---|
A|--0---0-----0-0-0-3---3-----3-3-3-|--3---3-----3-3-3-3---3-3-2---2---|
E|--3---3-----3-3-3-----------------|--------------------------3---3---|
    1   +   2   +   3   +   4   +   |  1   +   2   +   3   +   4   +   |

    ↓   ↓     ↑ ↓ ↑ ↓   ↓     ↑ ↓ ↑    ↓     ↑   ↑ ↓     ↑   ↑ ↓   ↓      ↓     ↑   ↑ ↓     ↑   ↑ ↓   ↓ ↑
e|--0---0-----0-0-0-0---0-----0-0-0-|--0-----0---0-0-----0---0-x---1---|--0-----0---0-0-----0---0-x---0-0-|
B|--1---1-----1-1-1-1---1-----1-1-1-|--1-----1---1-1-----1---1-x---1---|--1-----1---1-1-----1---1-x---1-1-|
G|--0---0-----0-0-0-0h2-2-----2-2-2-|--0-----0---0-0-----0---0-x---2---|--0-----0---0-0-----0---0-x---0-0-|
D|--2---2-----2-2-2-3---3-----3-3-3-|--0h2---2---2-0h2---2---2-x---3---|--0h2---2---2-0h2---2---2-x---0-0-|
A|--0---0-----0-0-0-3---3-----3-3-3-|--3-----3---3-3-----3---3-x---3---|--3-----3---3-3-----3---3-x---3-3-|
E|--3---3-----3-3-3-----------------|--------------------------x-------|--------------------------x-------|
    1   +   2   +   3   +   4   +   |  1   +   2   +   3   +   4   +   |  1   +   2   +   3   +   4   +   |

[Interlude]
(1:16)
                          ↓    ↓ ↑                           ↓    ↓ ↑
e|--3p0----------------1--0----0-0--|-------0----------------0----0-0--|
B|--1-----1--------1------1----1-1--|------1---3p0----1---1--1----1-1--|
G|--0---0----0-----0h2----0----0-0--|-----0--------0--0h2----0----0-0--|
D|--2-----------2--3------2----2-2--|----2------------3------2----2-2--|
A|--3--------------0------3----3-3--|--3-------3------0------3----3-3--|
E|-----------------1----------------|-----------------1----------------|

[Verse 3]
(1:21)
(In the studio version, Verse 3 is exactly the same as Verse 2, but in some live recordings
he has played it with less structure like this)
    ↓     ↑   ↑   ↑ ↓     ↑ ↓   ↓ ↑    ↓     ↑   ↑   ↑ ↓   ↓   ↓   ↓ ↑
e|--0-----0---0---0-0-----0-0---0-0-|--0-----0---0---0-0---0---0---0-0-|
B|--1-----1---1---1-1-----1-1---1-1-|--1-----1---1---1-1---1---1---1-1-|
G|--0-----0---0---0-0h2---2-0---0-0-|--0-----0---0---0-2---2---0---0-0-|
D|--0h2---2---2---2-3-----3-2---2-2-|--0h2---2---2---2-3---3---2---2-2-|
A|--3-----3---3---3-3-----3-3---3-3-|--3-----3---3---3-3---3---3---3-3-|
E|------------------1-----1---------|------------------1---1-----------|
    1   +   2   +   3   +   4   +   |  1   +   2   +   3   +   4   +   |

    ↓     ↑   ↑   ↑ ↓     ↑ ↓   ↓ ↑    ↓     ↑   ↑   ↑ ↓   ↓   ↓   ↓
e|--0-----0---0---0-0-----0-0---0-0-|--0-----0---0---0-0---0---0---0---|
B|--1-----1---1---1-1-----1-1---1-1-|--1-----1---1---1-1---1---1---1---|
G|--0-----0---0---0-0h2---2-0---0-0-|--0-----0---0---0-2---2---0---0---|
D|--0h2---2---2---2-3-----3-2---2-2-|--0h2---2---2---2-3---3---2---2---|
A|--3-----3---3---3-3-----3-3---3-3-|--3-----3---3---3-3---3---3---2---|
E|------------------1-----1---------|------------------1---1-----------|
    1   +   2   +   3   +   4   +   |  1   +   2   +   3   +   4   +   |

    ↓           ↓ ↑ ↓           ↓ ↑    ↓           ↓ ↑ ↓           ↓ ↑
e|--0-----------0-0-0-----------0-0-|--0-----------0-0-0-----------0-0-|
B|--1-----------1-1-1-----------1-1-|--1-----------1-1-0-----------0-0-|
G|--0h2---------2-2-0h2---------2-2-|--0-----------0-0-0-----------0-0-|
D|--2-----------2-2-3-----------3-3-|--0h2---------2-2-0h2---------2-2-|
A|--0-----------0-0-----------------|--3-----------3-3-2-----------2-2-|
E|------------------1-----------1-1-|------------------0-----------0-0-|
    1   +   2   +   3   +   4   +   |  1   +   2   +   3   +   4   +   |

    ↓           ↓ ↑ ↓                  ↓               ↓   ↓   ↓   ↓
e|--0-----------0-0-0---------------|--0---------------x---0---0---0---|
B|--1-----------1-1-1---------------|--1---------------x---3---3---3---|
G|--0h2---------2-2-0h2-------------|--0---------------x---0---0---0---|
D|--2-----------2-2-3---------------|--2---------------x---2---2---2---|
A|--0-----------0-0-----------------|--3---------------x---3---3---3---|
E|------------------1---------------|------------------x---------------|
    1   +   2   +   3   +   4   +   |  1   +   2   +   3   +   4   +   |

[Chorus]
(1:39)
    ↓   ↓ ↑ ↓   ↓ ↑ ↓   ↓ ↑ ↓   ↓ ↑    ↓   ↓     ↑ ↓ ↑ ↓   ↓     ↑ ↓ ↑
e|--0---0-0-0---0-0-0---0-0-0---0-0-|--0---0-----0-0-0-0---0-----0-0-0-|
B|--1---1-1-1---1-1-1---1-1-1---1-1-|--1---1-----1-1-1-1---1-----1-1-1-|
G|--0---0-0-0---0-0-0---0-0-0---0-0-|--0---0-----0-0-0-0---0-----0-0-0-|
D|--2---2-2-0---0-0-2---2-2-2---2-2-|--3---3-----3-3-3-0h2-2-----2-2-2-|
A|--3---3-3-2---2-2-0---0-0-3---3-3-|------------------3---3-----3-3-3-|
E|----------3---3-3-3---3-3---------|--1---1-----1-1-1-----------------|
    1   +   2   +   3   +   4   +   |  1   +   2   +   3   +   4   +   |

    ↓   ↓     ↑ ↓ ↑ ↓   ↓     ↑ ↓ ↑    ↓   ↓     ↑ ↓   ↓       ↓
e|--0---0-----0-0-0-0---0-----0-0-0-|--0---0-----0-0---0-------x-------|
B|--1---1-----1-1-1-1---1-----1-1-1-|--1---1-----1-1---1-------x-------|
G|--0h2-2-----0-0-0-0---0-----0-0-0-|--0---0-----0-0---0-------x-------|
D|--3---3-----3-3-3-0h2-2-----2-2-2-|--0---0-----0-2---0-------x-------| (x2)
A|------------------3---3-----3-3-3-|--2---2-------3---2-------x-------|
E|--1---1-----1-1-1-----------------|--3---3-----------3-------x-------|
    1   +   2   +   3   +   4   +   |  1   +   2   +   3   +   4   +   |

(1:56)
    ↓   ↓     ↑ ↓ ↑ ↓   ↓     ↑ ↓ ↑    ↓   ↓     ↑ ↓ ↑ ↓   ↓ ↑ ↓   ↓ 
e|--0---0-----0-0-0-0---0-----0-0-0-|--0---0-----0-0-0-0---0-0-0---0---|
B|--1---1-----1-1-1-1---1-----1-1-1-|--1---1-----1-1-1-1---1-1-1---1---|
G|--0---0-----0-0-0-0h2-2-----2-2-2-|--0---0-----0-0-0-0---0-0-0---0---|
D|--2---2-----2-2-2-3---3-----3-3-3-|--0h2-2-----2-2-2-0h2-2-2-0---0---| (x3)
A|--0---0-----0-0-0-3---3-----3-3-3-|--3---3-----3-3-3-3---3-3-2---2---|
E|--3---3-----3-3-3-----------------|--------------------------3---3---|
    1   +   2   +   3   +   4   +   |  1   +   2   +   3   +   4   +   |

    ↓   ↓     ↑ ↓ ↑ ↓   ↓     ↑ ↓ ↑    ↓     ↑   ↑ ↓     ↑   ↑ ↓   ↓   
e|--0---0-----0-0-0-0---0-----0-0-0-||-0-----0---0-0-----0---0-x---1--|
B|--1---1-----1-1-1-1---1-----1-1-1-||•1-----1---1-1-----1---1-x---1--|
G|--0---0-----0-0-0-0h2-2-----2-2-2-||-0-----0---0-0-----0---0-x---2--|
D|--2---2-----2-2-2-3---3-----3-3-3-||-0h2---2---2-0h2---2---2-x---3--| (x4)
A|--0---0-----0-0-0-3---3-----3-3-3-||•3-----3---3-3-----3---3-x---3--|
E|--3---3-----3-3-3-----------------||-------------------------x------|
    1   +   2   +   3   +   4   +   |  1   +   2   +   3   +   4   +   

[Bridge]
(2:20)
(The chords at the end of each line are sometimes played live, but are not in the studio version.)
    ↓               ↓                  ↓                       ↓
e|----------------------------------|--0----------------------(0)------|
B|--1---------------1---------------|--1----------------------(1)------|
G|--2---------------2---------------|--0----------------------(0)------|
D|--3---------------3---------------|--0h2--------------------(0h2)----|
A|--3---------------3---------------|--3----------------------(3)------|
E|--1---------------1---------------|----------------------------------|
    1   +   2   +   3   +   4   +   |  1   +   2   +   3   +   4   +   |

    ↓               ↓                  ↓                       ↓
e|----------------------------------|--0----------------------(0)------|
B|--1---------------1---------------|--1----------------------(1)------|
G|--2---------------2---------------|--0----------------------(0)------|
D|--3---------------3---------------|--2----------------------(0h2)----|
A|--3---------------3---------------|--0----------------------(0)------|
E|--1---------------1---------------|--3----------------------(3)------|
    1   +   2   +   3   +   4   +   |  1   +   2   +   3   +   4   +   |

    ↓               ↓                  ↓                       ↓
e|------------------0---------------|--0----------------------(0)------|
B|--1---------------1---------------|--1----------------------(1)------|
G|--0h2-------------0---------------|--0----------------------(0)------|
D|--3---------------0---------------|--0h2--------------------(0h2)----|
A|------------------2---------------|--3----------------------(3)------|
E|--1---------------3---------------|----------------------------------|
    1   +   2   +   3   +   4   +   |  1   +   2   +   3   +   4   +   |

    ↓               ↓                  ↓                       ↓
e|----------------------------------|--0----------------------(0)------|
B|--1---------------1---------------|--1----------------------(1)------|
G|--2---------------2---------------|--0----------------------(0)------|
D|--3---------------3---------------|--0h2--------------------(0h2)----|
A|--3---------------3---------------|--3----------------------(3)------|
E|--1---------------1---------------|----------------------------------|
    1   +   2   +   3   +   4   +   |  1   +   2   +   3   +   4   +   |

    ↓               ↓                  ↓                       ↓
e|----------------------------------|--0----------------------(0)------|
B|--1---------------1---------------|--1----------------------(1)------|
G|--2---------------2---------------|--0----------------------(0)------|
D|--3---------------3---------------|--2----------------------(0h2)----|
A|--3---------------3---------------|--0----------------------(0)------|
E|--1---------------1---------------|--3----------------------(3)------|
    1   +   2   +   3   +   4   +   |  1   +   2   +   3   +   4   +   |

    ↓               ↓                  ↓                       ↓
e|------------------0---------------|--0-----------------------x-------|
B|--1---------------1---------------|--1-----------------------x-------|
G|--0h2-------------0---------------|--0-----------------------x-------|
D|--3---------------0---------------|--3-----------------------x-------|
A|------------------2---------------|--2-----------------------x-------|
E|--1---------------3---------------|--3-----------------------x-------|
    1   +   2   +   3   +   4   +   |  1   +   2   +   3   +   4   +   |


[Interlude]
(2:48)
e|--3p0----------------1--0---------|-------0----------------0---------|
B|--1-----1--------1------1---------|------1---3p0----1---1--1---------|
G|--0---0----0-----0h2----0-----0---|-----0--------0--0h2----0---------|
D|--2-----------2--3------2---2-----|----2------------3------2----2----| (x6)
A|--3--------------0------3---------|--3-------3------0------3---------|
E|-----------------1----------------|-----------------1----------------|

(3:14)
(You can play that previous line 4 MORE times or strum these chords as the
"how many times" lyric goes up in pitch.)
    ↓     ↑   ↑   ↑ ↓     ↑ ↓   ↓ ↑    ↓     ↑   ↑   ↑ ↓   ↓   ↓   ↓ ↑
e|--0-----0---0---0-0-----0-0---0-0-|--0-----0---0---0-0---0---0---0-0-|
B|--1-----1---1---1-1-----1-1---1-1-|--1-----1---1---1-1---1---1---1-1-|
G|--0-----0---0---0-0h2---2-0---0-0-|--0-----0---0---0-2---2---0---0-0-|
D|--0h2---2---2---2-3-----3-2---2-2-|--0h2---2---2---2-3---3---2---2-2-| (x4)
A|--3-----3---3---3-3-----3-3---3-3-|--3-----3---3---3-3---3---3---3-3-|
E|------------------1-----1---------|------------------1---1-----------|
    1   +   2   +   3   +   4   +   |  1   +   2   +   3   +   4   +   |

[Outro]
(3:32)
    ↓       ↓       ↓       ↓          ↓               ↓
e|--0-------0-------0-------0-------|-0---------------0--------------|
B|--1-------1-------1-------1-------|-1---------------1--------------|
G|--0-------0-------0-------0-------|-0h2-------------0--------------|
D|--2-------0-------2-------2-------|-3---------------0h2------------| (x4 ← repeat only final measure)
A|--3-------2-------0-------3-------|-3---------------3--------------|
E|----------3-------3---------------|-1------------------------------|
    1   +   2   +   3   +   4   +   |  1   +   2   +   3   +   4   +   |

    ↓       ↓                          ↓
e|--0-------0-----------------------|--0-------------------------------|
B|--1-------1-----------------------|--1-------------------------------|
G|--0h2-----0-----------------------|--0-------------------------------|
D|--3-------2-----------------------|--0h2-----------------------------|
A|----------3-----------------------|--3-------------------------------|
E|--1-------------------------------|----------------------------------|
    1   +   2   +   3   +   4   +   |  1   +   2   +   3   +   4   +   |


************************************

| p    Pull-off
| h    Hammer-on
| x    Dead note
| (n)  Ghost note

************************************

            
            
Suggest correction
Creating personal tab
Creating personal tab
You can edit any tab online and save it as your Personal.

You can edit, replace or remove any tab part or add personal notes – all changes will be seen only by you.

Personal tabs can be accessed anytime from any device, even offline.
Learn more »
Give kudos to tab author, rate the tab!
1 2 3 4 5
comments
print report bad tab
guest
You may want to rate the tab now too:
select rating
Wanna post a correction for this tab? Suggest correction