Oops, an error
Loading. Please wait.

Hold On Im Coming Tab

version 1
version 1

Whole song

Interactive

35,039 views 72 this week
3 commentsread comments
1 2 3 4 5
x 7
add to favorites
×
Save as Personal and add changes to this tab that will be seen only by you. Learn more ›
×
You can save this tab as Personal to edit and correct it or add notes. All changes will be seen only by you. Learn more »
save as personal
new!
launch autoscroll
font size
0
reset
how to read this tab
guitar tuner
Autoscroll
slow
fast
+/-
esc
set tempo
stop
[Intro]
(Riff for horns over chorus  Ab B C#)
e|-------------------------------------|
B|-------------------------------------|
G|-------------------------------------|
D|----6-4-------4-6--------------------|
A|--------6-6-6------------------------|
E|-------------------------------------|

[Verse]
Ab7
Don't you ever be sad
Lean on me when times get bad
          C#
When the day come and you're in doubt
In a river of trouble about to drown

[Chorus]
Ab7           B
Hold On, I'm coming
     C#        Ab7
Hold On, I'm coming

[Verse]
Ab7
I'm on my way your lover
When you get cold
I'll be your cover
               C#
Don't have to worry
'Cause I'm here
Don't need to suffer
'Cause I'm here

[Chorus]
Ab7           B
Hold On, I'm coming
     C#        Ab7
Hold On, I'm coming
Ab7           B
Hold On, I'm coming
     C#        Ab7
Hold On, I'm coming

[Bridge]
C#
Reach out to me
For satisfaction
B
Call my name
            C#
For quick reaction
        D#
Hey hey hey

(then do this little lick over Ab F# B C#)
e|----------------------------------------|
B|----------------------------------------|
G|-----------------------4-6-8-8s10-8-6---|
D|----666666-4-6-6s8-6-4------------------|
A|----------------------------------------|
E|----------------------------------------|

(Riff for horns over chorus  Ab7 B C#)
e|-------------------------------------|
B|-------------------------------------|
G|-------------------------------------|
D|----6-4-------4-6--------------------|
A|--------6-6-6------------------------|
E|-------------------------------------|

[Bridge]
Ab7
Don't you ever, don't you ever be sad
I want you to lean on me when times get bad
           C#
When the day come and you're in doubt
In a river of trouble about to drown

[Chorus] (x2)
Ab7           B
Hold On, I'm coming
     C#        Ab7
Hold On, I'm coming
Ab7           B
Hold On, I'm coming
     C#        Ab7
Hold On, I'm coming
Suggest correction
comments
print report bad tab
3 comments total.
+1 reply
JamieShieldsMet 20 Nov 30, 2008 05:56 AM

mate is there any chance you could show what the chords are that be awesome man love this song !

0 reply
BomBoRa~~~69 10 Mar 03, 2013 09:18 PM

hey- cool tab, a real Stax soul classic...
it could maybe use some additional info on chord voicings (show ppl how to play it like Steve Cropper would), fills, horns, arrangement

guest
Wanna post a correction for this tab? Suggest correction