Oops, an error
Loading. Please wait.

Wrap It Up bass

version 1
version 1

Whole song

Interactive

472 views 9 this week
no commentswrite comment
1 2 3 4 5
3 more votes to show rating
add to favorites
×
Save as Personal and add changes to this tab that will be seen only by you. Learn more ›
×
You can save this tab as Personal to edit and correct it or add notes. All changes will be seen only by you. Learn more »
launch autoscroll
font size
0
reset
guitar tuner
edit
Autoscroll
slow
fast
+/-
esc
set tempo
stop
Author
Difficulty
WRAP IT UP (Bassline)

As recorded by Sam & Dave
(From the 1968 Album I THANK YOU)

Words and Music by Isaac Hayes & David Porter 

Transcribed by Slowhand


Gtr I (E A D G) - 'Donald "Duck" Dunn - Bass'


 Intro
  Q=114
 4/4
  Gtr I
  W          S E S E S S +S  S E E E   S E S E S S +S  S E E E
|----------|-------------------------|--------------------------|
|----------|-------------------------|--------------------------|
|----------|-----------------3-3-4-6-|-----------3-(3)-3-3-4-5--|
|----------|-4-4-4-4-4-4-(4)---------|-4-4-4-4-4----------------|


  Q  E. S E E E E   Q  E. S E E E E   Q  E. S E E E E   Q  Q  Q  E E
|-----------------|-----------------|----6--6---6-----|----8----------||
|-----------------|----6--6-------3-|-4-------4---4-3-|-6-----6-------||
|-6-------6---6-5-|-4-------4-4-6---|-----------------|----------4-3--||
|----6--6---6-----|-----------------|-----------------|---------------||


   1st - 3rd Verses
    $
    E E E E +E  E E E   E E E E +E  E E E
||--------------------|-------------------|
||o-------------------|-------------------|
||o-6-6---6-(6)-6-5-4-|-6-6---6-(6)-6-5-4-|
||--------------------|-------------------|


  E E E E +E  E E E   E E E E +E  E E E
|-------------------|-------------------|
|-------------------|-------------------|
|-6-6---6-(6)-6-5-4-|-6-6---6-(6)-6-5-4-|
|-------------------|-------------------|


  E E E E +E  E E E   E E E E +E  E E E
|-------------------|-------------------|
|-------------------|-------------------|
|-6-6---6-(6)-6-5-4-|-6-6---6-(6)-6-5-4-|
|-------------------|-------------------|


                                 To Coda
  E E E E +E  E E E   E E E E +E  E E E
|-------------------|--------------------||
|-------------------|--------------------||
|-6-6---6-(6)-6-5-4-|-6-6---6-(6)-6-5-4--||
|-------------------|--------------------||


 Chorus
                                                       1.
  Q  E. S E E E E   Q  E. S E E E E   Q  E. S E E E E   Q  E. S E E E E
|-----------------|-----------------|----6--6---6-----|----8--8-----------||
|-----------------|----6--6-------3-|-4-------4---4-3-|-6-------6--------o||
|-6-------6---6-5-|-4-------4-4-6---|-----------------|-------------5-4--o||
|----6--6---6-----|-----------------|-----------------|-----------8-------||


  2.
  Q  E. S E E E E   Q  E. S E E E E   Q  E. S E E E E   Q  E. S E E E E
|----8--8---------|-----------------|-----------------|----6--6---6------|
|-6-------6-------|-----------------|----6--6-------3-|-4-------4---4-3--|
|-------------5-4-|-6-------6---6-5-|-4-------4-4-6---|------------------|
|-----------8-----|----6--6---6-----|-----------------|------------------|


  Q  E. S E E Q    S E S E S S +S  E. E E   S E S E S S +S  E. E E
|----8--8---8----|-8-8-8-8-8-8-(8)--------|-8-8-8-8-8-8-(8)--------|
|-6-------6---6--|-----------------5--6-8-|-----------------5--6-8-|
|----------------|------------------------|------------------------|
|----------------|------------------------|------------------------|


                                                     Bridge
  S E S E S S +S  E. E E   S E S E S S +S  E. E E     E E E E E E E E
|-8-8-8-8-8-8-(8)--------|-8-8-8-8-8-8-(8)--------||--5-5-4-4-3-3-4-4-|
|-----------------5--6-8-|-----------------5--6-8-||o-----------------|
|------------------------|------------------------||o-----------------|
|------------------------|------------------------||------------------|


                                       D.S. al Coda
  E E E E E E E E  3x E E E E E E E E   Q  Q  Q  Q
|-5-5-4-4-3-3-4-4--||-5-5-4-4-3-3-4-4-|-6-----------||
|-----------------o||-----------------|----6--------||
|-----------------o||-----------------|-------8-----||
|------------------||-----------------|----------6--||


 Out-Chorus
  &
  Q  E. S E E E E   Q  E. S E E E E   Q  E. S E E E E   Q  E. S E E E E
|-----------------|-----------------|----6--6---6-----|----8--8----------|
|-----------------|----6--6-------3-|-4-------4---4-3-|-6-------6--------|
|-6-------6---6-5-|-4-------4-4-6---|-----------------|-------------5-4--|
|----6--6---6-----|-----------------|-----------------|-----------8------|


  Q  E. S E E E E   Q  E. S E E E E   E E E E E E E E
|-----------------|-----------------|-----------------|
|-----------------|----6--6---6-----|-4-----------5-4-|
|-6-------6---6-5-|-4-------4---4-6-|---------5-6-----|
|----6--6---6-----|-----------------|---6-7-8---------|


  S E S E S S +S  S E E E   S E S E S S +S  S E E E   Q  E. S E E E E
|-------------------------|-------------------------|-----------------|
|-6-6-6-6-6-6-(6)---------|-------------------------|----8--8---8-----|
|-----------------3-3-5-6-|-----------3-(3)-3-3-5-4-|-6-------6---6-5-|
|-------------------------|-4-4-4-4-4---------------|-----------------|


  Q  E. S E E E E   Q  E. S E E E E   Q  E. S E E E E
|-----------------|----6--6---6-----|----8--8---------|
|----6--6-------3-|-4-------4---4-3-|-6-------6-------|
|-4-------4-4-6---|-----------------|-------------5-4-|
|-----------------|-----------------|-----------8-----|


  Q  E. S E E E E   Q  E. S E E E E   E E E E E E E E
|-----------------|-----------------|-----------------*|
|----8--8---8-----|----6--6-------3-|-4-----------5-4-*|
|-6-------6---6-5-|-4-------4-4-6---|---------5-6-----*|
|-----------------|-----------------|---6-7-8---------*|


Duration Legend
---------------
W - whole; H - half; Q - quarter; E - 8th; S - 16th; T - 32nd; X - 64th; a - acciaccatura
+ - note tied to previous; . - note dotted; .. - note double dotted
Uncapitalized letters represent notes that are staccato (1/2 duration)
Irregular groupings are notated above the duration line
Duration letters will always appear directly above the note/fret number it represents the
duration for.  Duration letters with no fret number below them represent rests.  Multi-
bar rests are notated in the form Wxn, where n is the number of bars to rest for.  Low
melody durations appear below the staff

Tablature Legend
----------------
 h   - hammer-on
 p   - pull-off
 b   - bend
 pb  - pre-bend
 r   - bend release (if no number after the r, then release immediately)
 /\  - slide into or out of (from/to "nowhere")
 s   - legato slide
 S   - shift slide
  - natural harmonic
[n]  - artificial harmonic
n(n) - tapped harmonic
 ~   - vibrato
 tr  - trill
 T   - tap
 TP  - trem. picking
 PM  - palm muting
\n/  - tremolo bar dip; n = amount to dip
 \n  - tremolo bar down
 n/  - tremolo bar up
/n\  - tremolo bar inverted dip
 =   - hold bend; also acts as connecting device for hammers/pulls
 <>  - volume swell (louder/softer)
 x   - on rhythm slash represents muted slash
 o   - on rhythm slash represents single note slash

Misc Legend
-----------
 |  - bar
||  - double bar
||o - repeat start
o|| - repeat end
*|  - double bar (ending)
 :  - bar (freetime)
 $  - Segno
 &  - Coda
Tempo markers -  = BPM(8/16=s8/s16), where s8 = swing 8ths, s16 = swing 16ths



I've been watching you for days, now baby
I just love your sexy ways, now baby
You know my love will never stop, now baby
Just put your loving in my box, now baby

Wrap it up, I'll take it
Wrap it up, I'll take it

Well, no more will I shop around, now baby
I know I got the best thing in town, now baby
I've seen all I want to see, now baby
Bring your loving straight to me, now baby

Wrap it up, I'll take it
Wrap it up, I'll take it
Wrap it up, I'll take it, oowee
Wrap it up, I'll take it
Good God almighty, come on

Well, I'm gonna treat you like the queen you are
Bring you sweet things from my candy jar
You've got tricks you ain't never used
Give it, give it to me, it won't get abused

I've been watching you for days, baby
I just love your sexy ways, baby
You know my love will never stop, baby
Just put your loving in my box, ooo baby

Wrap it up, I'll take it
Wrap it up, I'll take it
Wrap it up, I'll take it
Wrap it up, I'll take it

Wrap, wrap
Wrap, wrap, wrap
Wrap it up, I'll take it
Wrap it up, I'll take it
Wrap it up, I'll take it
Wrap it up, I'll take it
Wrap it up, I'll take it
Wrap it up, I'll take it
Wrap it up, I'll take it

            
            
Suggest correction
Creating personal tab
Creating personal tab
You can edit any tab online and save it as your Personal.

You can edit, replace or remove any tab part or add personal notes – all changes will be seen only by you.

Personal tabs can be accessed anytime from any device, even offline.
Learn more »
Give kudos to tab author, rate the tab!
1 2 3 4 5
comments
print report bad tab
guest
You may want to rate the tab now too:
select rating
Wanna post a correction for this tab? Suggest correction