Oops, an error
Loading. Please wait.

You Dont Know Like I Know bass

64 views 1 this week
no commentswrite comment
1 2 3 4 5
3 more votes to show rating
add to favorites
×
Save as Personal and add changes to this tab that will be seen only by you. Learn more ›
×
You can save this tab as Personal to edit and correct it or add notes. All changes will be seen only by you. Learn more »
launch autoscroll
font size
0
reset
guitar tuner
edit
Autoscroll
slow
fast
+/-
esc
set tempo
stop
Author
You Don’t Know Like I Know
Single release by Soul Legends Sam & Dave in 1965. Song never charted in UK
Tab by bass50611.  Welcome to my version of this soul classic. 
Not exact but very close to original bass line and.....it does fit!

Intro:                             (Sax In)
G|--------------------------------------------------------------|
D|-2-2---2----2----2-2---2----2----2-2---2----2----2-2---2----2-|
A|--------0-4-------------0-4-------------0-4-------------0-4---|
E|--------------------------------------------------------------|

(Drums In)
G|-------------------------------|
D|-2--2---2----2----2-2---2----2-|
A|---------0-4-------------0-4---|
E|-------------------------------|

Chorus:                                            (Play This Bit x2)
G|--------------------------------------------------------------|
D|-2-2---2----2----2-2---2----2----2-2---2----2----2-2---2----2-|
A|--------0-4-------------0-4-------------0-4-------------0-4---|
E|--------------------------------------------------------------|

Verse 1:
G|-----------------------------------------------------------------|
D|-6--6--6-6----6--6--6-6------------------------------------------|
A|--------6-6----------6-6----3--3--3-3----3--3--3-3----2--2--2-2--|
E|-----------------------------------3-3----------3-3----------2-2-|

G|----------------------------------------------|
D|----------------------------------------------|
A|-2--2--2-2----2-2-2-2-2-2-2-2---2-2-2-2-2-2-2-|
E|--------2-2-----------------------------------|

Chorus:                                            (Play This Bit x2)
G|--------------------------------------------------------------|
D|-2-2---2----2----2-2---2----2----2-2---2----2----2-2---2----2-|
A|--------0-4-------------0-4-------------0-4-------------0-4---|
E|--------------------------------------------------------------|

Verse 2:
G|-----------------------------------------------------------------|
D|-6--6--6-6----6--6--6-6------------------------------------------|
A|--------6-6----------6-6----3--3--3-3----3--3--3-3----2--2--2-2--|
E|-----------------------------------3-3----------3-3----------2-2-|

G|------------------------------------------------------------------|
D|------------------------------------------------------------------|
A|-2--2--2-2----2-2-2-2-2-2-2-2---2-2-2-2-2-2-2-2---2-2-2-2-2-2-2-2-|
E|--------2-2-------------------------------------------------------|

G|-----------------|
D|-----------------|
A|-2-2-2-2-2-2-2-2-|
E|-----------------|

Interlude:
G|----------------------------------------------------------------|
D|-2--2--2-2----2--2--2-2----2--2--2-2----4--4--4-4----5--5--5-5--|
A|--------2-2----------2-2----------2-2----------4-4----------5-5-|
E|----------------------------------------------------------------|

G|--------------------------------------|
D|-5--5--5-5----5--5--5-5----7--7--7-7--|
A|--------5-5----------5-5----------7-7-|
E|--------------------------------------|

Verse 3:
G|-----------------------------------------------------------------|
D|-6--6--6-6----6--6--6-6------------------------------------------|
A|--------6-6----------6-6----3--3--3-3----3--3--3-3----2--2--2-2--|
E|-----------------------------------3-3----------3-3----------2-2-|

G|------------------------------------------------|
D|------------------------------------------------|
A|-2--2--2-2----2-2-2-2-2-2-2-2---2-2-2-2-2-2-2-2-|
E|--------2-2-------------------------------------|

Chorus:                                            (Play This Bit x2)
G|--------------------------------------------------------------|
D|-2-2---2----2----2-2---2----2----2-2---2----2----2-2---2----2-|
A|--------0-4-------------0-4-------------0-4-------------0-4---|
E|--------------------------------------------------------------|

Bridge:   (Play Quavers)
G|-------------------4-4-4-4-4-4-4-4-------------------------------------|
D|-----------------------------------------------------------------------|
A|-2-2-2-2-2-2-2-2---------------------2-2-2-2-2-2-2-2---2-2-2-2-2-2-2-2-|
E|-----------------------------------------------------------------------|

Outro:                                          (Repeat To Fade/End)
G|--------------------------------------------------------------|
D|-----2-------2-------2------2-------2-------2-------2-------2-|
A|-0-4-----0-4-----0-4----0-4-----0-4-----0-4-----0-4-----0-4---|
E|--------------------------------------------------------------|



You don't know like I know
What that woman has done for me
In the morning she's my water
In the evening she's my cup of tea

Just as long as I live
Whatever's trouble to her
I go to her and like a miracle
Everything is alright

You don't know like I know
What that woman has done for me
She brings her loving home now
Just the way it's supposed to be

What she wants, she can get
But you know she gives me loving
Til she's ready, til she's ready to quit

Musical interlude

Will somebody help me

Just as long as I live
Whatever's trouble to her
I go to her and like a miracle
Everything is alright

You don't know like I know
What that woman has done for me
In the morning she's my water
In the evening she's my cup of tea

Nobody knows, nobody knows, nobody knows like I know

You don't know
You don't know
Nobody knows
(Fade out)

            
            
Suggest correction
Creating personal tab
Creating personal tab
You can edit any tab online and save it as your Personal.

You can edit, replace or remove any tab part or add personal notes – all changes will be seen only by you.

Personal tabs can be accessed anytime from any device, even offline.
Learn more »
Give kudos to tab author, rate the tab!
1 2 3 4 5
comments
print report bad tab
guest
You may want to rate the tab now too:
select rating
Wanna post a correction for this tab? Suggest correction