Oops, an error
Loading. Please wait.

Mario Kart Love Song Tab

version 2
version 2

Whole song

Interactive

12,086 views 1 this week
1 commentread comment
1 2 3 4 5
please rate
add to favorites
launch autoscroll
font size
0
reset
how to read this tab
guitar tuner
Tab Pro tools
  • play this tab
  • loop segment
  • change instrument
  • show fretboard
  • metronome
×
Best way to learn
"Mario Kart Love Song"
Autoscroll
slow
fast
+/-
esc
set tempo
stop
Difficulty
Capo
intermediate
3rd fret
-------------------------------------------------------------------------------
                Mario Kart Love Song - Sam Hart
-------------------------------------------------------------------------------
Tabbed by:ChillinDylan123
Email:

Tuning: Capo on 3rd Fret


Order:

-Intro
-Verse 1
-Chorus
-Pre-Verse 2
-Verse 2
-Chorus
-Chorus
-Outro


Intro:


e|----0--0------0--0--------0--0------------0--0-0--0-0-0--0-0--0-0--0-0-----|
B|----1--1------1--1--------1--1------------1--1-1--1-1-1--1-1--3-3--1-1-----|
G|----0--0------0--0--------0--0------------0--0-0--0-0-0--0-0--0-0--0-0-----|
D|-2--2--2---0--0--0---0h2--2--2---2---0----3--3-3--3-3-3--3-3--0-0--0-0-----|
A|-3--3--3------3--3--------3--3---3---3----2--2-2--2-2-2--2-2--2-2--2-2-----|
E|-3--3--3------3--3--------3--3---3---3----3--3-3--3-3-3--3-3--3-3--0-0-----|

e|-0--0-0--0-0-0--0-0-0--0-0----0--0-0--0-0-0--0-0-0--0-0--------------------|
B|-1--1-1--1-1-0--0-0-0--1-1----1--1-1--1-1-1--1-1-1--1-1--------------------|
G|-2--2-2--2-2-2--2-2-2--2-2----2--2-2--2-2-0--0-0-0--2-2--------------------|
D|-2--2-2--2-2-2--2-2-2--2-2----3--3-3--3-3-3--3-3-3--3-3--------------------|
A|-0--0-0--0-0-0--0-0-0--0-0----3--3-3--3-3-3--3-3-3--3-3--------------------|
E|------------------------------0--0-0--0-0-0--0-0-0--0-0--------------------|


Verse 1 and Chorus:

e|-0--0-0--0-0-0--0-0-0--0-0-0----0--0-0--0-0-0--0-0-0--0-0-0----------------|
B|-1--1-1--1-1-1--1-1-1--1-1-1----1--1-1--1-1-1--1-1-1--1-1-1----------------|
G|-0--0-0--0-0-0--0-0-0--0-0-0----0--0-0--0-0-0--0-0-0--0-0-0----------------|
D|-2--2-2--2-2-2--2-2-2--2-2-2----3--3-3--3-3-3--3-3-3--3-3-3----------------|
A|-3--3-3--3-3-3--3-3-3--3-3-3----2--2-2--2-2-2--2-2-2--2-2-2----------------|
E|-3--3-3--3-3-3--3-3-3--3-3-3----3--3-3--3-3-3--3-3-3--3-3-3----------------|

e|-0--0-0--0-0-0--0-0-0--0-0-0----0--0-0--0-0-0--0-0-0--0-0------------------|
B|-1--1-1--1-1-1--1-1-1--1-1-1----1--1-1--1-1-1--1-1-1--1-1------------------|
G|-2--2-2--2-2-2--2-2-2--2-2-2----2--2-2--2-2-2--2-2-2--2-2--------------x2--|
D|-2--2-2--2-2-2--2-2-2--2-2-2----3--3-3--3-3-3--3-3-3--3-3--------------x2--|
A|-0--0-0--0-0-0--0-0-0--0-0-0----3--3-3--3-3-3--3-3-3--3-3------------------|
E|--------------------------------0--0-0--0-0-0--0-0-0--0-0------------------|

Pre-Verse 2 = 'Intro' Riff

Verse 2 = 'Verse 1 & Chorus' Riff



Bridge:

e|----0--0-0--0-0-0--0-0-0--0-0-0----0--0-0--0-0-0--0-0-0--0-0-0-------------|
B|----0--0-0--0-0-0--0-0-0--0-0-0----1--1-1--1-1-1--1-1-1--1-1-1-------------|
G|----0--0-0--0-0-0--0-0-0--0-0-0----2--2-2--2-2-2--2-2-2--2-2-2---------x2--|
D|----2--2-2--2-2-2--2-2-2--2-2-2----3--3-3--3-3-3--3-3-3--3-3-3---------x2--|
A|----2--2-2--2-2-2--2-2-2--2-2-2----3--3-3--3-3-3--3-3-3--3-3-3-------------|
E|----0--0-0--0-0-0--0-0-0--0-0-0----0--0-0--0-0-0--0-0-0--0-0-0-------------|


Chorus x 2


Outro:

e|--------------------0-/--x-------------------------------------------------|
B|-----------1--------1-/--x-------------------------------------------------|
G|---------0---0------0-/--x-------------------------------------------------|
D|-----0h2-------0h2--2-/--x-------------------------------------------------|
A|---3----------------3-/--x-------------------------------------------------|
E|--------------------3-/--x-------------------------------------------------|


| /  slide up
| \  slide down
| h  hammer-on
| p  pull-off
| ~  vibrato
| +  harmonic
| x  Mute note

Have Fun!


===============================================================================
comments
We did not receive enough feedback on this tab! Please rate:
print report bad tab
1 2 3 4 5
1 comment total.
0 reply
ufo guy wrote on March 10 2010, 09:56 pm

good job! perfect =)

I want to post or [tab]
guest
You may want to rate the tab now too:
select rating
Please do not post tabs as comments. Select "correction" instead!