Oops, an error
Loading. Please wait.

Body Like A Back Road chords

version 3
version 3

Whole song

Video

16,918 views 93 this week
1 commentread comment
1 2 3 4 5
x 7
add to favorites
×
Save as Personal and add changes to this tab that will be seen only by you. Learn more ›
×
You can save this tab as Personal to edit and correct it or add notes. All changes will be seen only by you. Learn more »
launch autoscroll
font size
0
reset
transpose
0
reset
display chords
guitar tuner
edit
Autoscroll
slow
fast
+/-
esc
set tempo
stop
Author
Difficulty
About this tab version
Detailed version with chords and riff tabs. Was this info helpful? Yes No
Strumming
There is no strumming pattern for this song yet. and get +5 IQ
Body Like a Back Road - Sam Hunt
Tabbed by Kenneth Wesley 
www.kenneth-wesley.com
YouTube: kennethwesley


Tuning: Standard

x - mute
/ - slide
h - hammer on

[Chords]
    F     C     D     B
e|--x-----x-----x-----x------|
B|--1-----x-----x-----1------|
G|--2-----5-----7-----3------|
D|--3-----5-----7-----3------|
A|--------3-----5------------|
E|--x-----x-----x-----x------|

These are how I play the chords. If there's no x or number you could open the string if you want. 


[Intro]
F C D B
F C F

(Low Octave)
e|-----------------------------|---------------------------------|
B|-----------------------------|---------------------------------|
G|--5/7-5-----------5/7-5------|--5/7-5--------------------------|
D|---------3/5-3-----------5h7-|---------3/5-3----3-5--5/7\5--3--|
A|-----------------------------|---------------------------------|
E|-----------------------------|---------------------------------|

(High Octave)
e|----------------------|--------------------|-----------------------|-----------------------|
B|--13/15-13------------|-13/15-13-----------|--13/15-13-------------|-----------------------|
G|----------- 10/12--10-|----------12h14-----|------------10/12--10--|-10-12-12/14/12--10----|
D|----------------------|--------------------|-----------------------|-----------------------|
A|----------------------|--------------------|-----------------------|-----------------------|
E|----------------------|--------------------|-----------------------|-----------------------|


[Verse 1]
                   F           C
Got a girl from the south side 
                      D 
Got braids in her hair
B                 F
   First time I seen her walk by
C              F
I ’bout fell up out my chair
               F     C
Had to get her number
                 D 
Took me like 6 weeks
B                     F
 Now me and her go way back
C      F
Like Cadillac seats


[Chorus]
            F         C
Body like a back road
                D               
Driving with my eyes closed
B            F              C          F
I know every curve like the back of my hand
              F    C 
Doin’ 15 in a 30
                   D             
I ain’t in no hurry
 B           F            C        F
I’ma take it slow just as fast as I can


[Verse 2]
                       F           C
The way she fit in them blue jeans
                    D
She don’t need no belt
B                   F
  But I can turn ’em inside out
C         F
I don’t need no help
                 F   C
Got hips like honey
                     D              
So thick and so sweet
B         F               C                F
 Ain’t no curves like hers on them downtown streets


[Chorus]
            F         C
Body like a back road
                D               
Driving with my eyes closed
B            F              C          F
I know every curve like the back of my hand
              F    C 
Doin’ 15 in a 30
                   D             
I ain’t in no hurry
 B           F            C        F
I’ma take it slow just as fast as I can


[Solo]
F C D B
F C F

e|-----------------------------|---------------------------------|
B|-----------------------------|---------------------------------|
G|--5/7-5-----------5/7-5------|--5/7-5--------------------------|
D|---------3/5-3-----------5h7-|---------3/5-3----3-5--5/7\5--3--|
A|-----------------------------|---------------------------------|
E|-----------------------------|---------------------------------|
 

[Verse 3]
                      F          C
We’re out here in the boondocks
                            D
With the breeze and the birds
B                    F
Tangled up in the tall grass
C         F
  With my lips on hers
                    F  C
On a highway to heaven
            D          
Headed south of her smile
B                    F    
  Get there when we get there
C           F
 Every inch is a mile


[Chorus]
            F         C
Body like a back road
                D               
Driving with my eyes closed
B            F              C          F
I know every curve like the back of my hand
              F    C 
Doin’ 15 in a 30
                   D             
I ain’t in no hurry
 B           F            C        F
I’ma take it slow just as fast as I can


            
            
Suggest correction
Creating personal tab
Creating personal tab
You can edit any tab online and save it as your Personal.

You can edit, replace or remove any tab part or add personal notes – all changes will be seen only by you.

Personal tabs can be accessed anytime from any device, even offline.
Learn more »
comments
print report bad tab
1 comment total.
+1 reply
brown2k5 10 May 23, 2017 04:00 PM

Of the four chords listed here, half are wrong. The song is indeed in F, but the "D" is always Dm the "B" is Bb.

guest
You may want to rate the tab now too:
select rating
Wanna post a correction for this tab? Suggest correction