Oops, an error
Loading. Please wait.

Maging Sino Ka Man Chords

70,481 views 366 this week
1 commentread comment
1 2 3 4 5
excellent!
x 1
add to favorites
launch autoscroll
font size
0
reset
transpose
0
reset
simplify chords
- display chords -
guitar tuner
Tab Pro tools
  • play this tab
  • loop segment
  • change instrument
  • show fretboard
  • metronome
×
Best way to learn
"Maging Sino Ka Man"
Autoscroll
slow
fast
+/-
esc
set tempo
stop
Contributor
Difficulty
intermediate
 G                        C9
Ang pag-ibig ay sadyang ganyan
  Bm 		        Em
tiwala sa isa't isa'y kailangan
 C9			  Bm
dati mong pag-ibig wala akong pakialam
  C9                        D
basta't mahal kita kailan pa man

Verse 2:
 G                      C9
wag kang mag-isip ng ano pa man
  Bm                     Em
mga paliwanag mo'y 'di na kailangan
 C9		        Bm
at kahit ano pa ang iyong nakaraan
 C9                       D
mamahalin kita maging sino ka man

Chorus:
 C9    Bm    C9            Bm
Mahal kita, pagkat mahal kita
 C9    Bm    C9          Bm
iniisip nila ay hindi mahalaga
   C9        D     G
mahal kita maging sino ka man

Adlib:
  Dm    Dm7       Bb      C7		    Fsus         F
e|-10-13-|-----------------12-13-15----------18-17-17-15-17--|
B|---------10p8-6-8-10-------------13-|-15-13----------------|
G|--------------------10-|-----------------------------------|  part 1
D|-----------------------------------------------------------|
A|-----------------------------------------------------------|
E|-----------------------------------------------------------|

  Dm    Dm7       Bb     A7        Dm        Bbm     C7sus C7
e|-10-13-|-----------------9-10-12-13--12-13-17-15-15--|
B|---------10p8-6-8-10---------------15----------------|
G|--------------------10-|-----------------------------|  part 2
D|-----------------------------------------------------|
A|-----------------------------------------------------|
E|-----------------------------------------------------|

Verse 3: do Verse 2 chords
 G                        C9
Mali man ang ikaw ay ibigin ko
Bm 		        Em
ako'y isang bulag na umiibig sa'yo
C9	             Bm
at kahit ano pa ang iyong nakaraan
C9          D          G
mamahalin kita maging sino ka man
comments
We did not receive enough feedback on this tab! Please rate:
print report bad tab
1 2 3 4 5
1 comment total.
0 reply
bryanzx10 wrote on March 9 2013, 06:18 pm

G C9
Ang pag-ibig ay sadyang ganyan
B7 Em
tiwala sa isa't isa'y kailangan
Cm Bm Em
dati mong pag-ibig wala akong pakialam
Am D
basta't mahal kita kailan pa man

Verse 2:
G C9
wag kang mag-isip ng ano pa man
B7 Em
mga paliwanag mo'y 'di na kailangan
Cm Bm Em
at kahit ano pa ang iyong nakaraan
Am D G G7
mamahalin kita maging sino ka man

Chorus:
C9 Bm C9 D G
Mahal kita, pagkat mahal kita
Em Bm C9 D G
iniisip nila ay hindi mahalaga
Am D C G
mahal kita maging sino ka man

Adlib:
Dm Dm7 Bb C7 Fsus F
e|-10-13-|-----------------12-13-15----------18-17-17-15-17--|
B|---------10p8-6-8-10-------------13-|-15-13----------------|
G|--------------------10-|-----------------------------------| part 1
D|-----------------------------------------------------------|
A|-----------------------------------------------------------|
E|-----------------------------------------------------------|

Dm Dm7 Bb A7 Dm Bbm C7sus C7
e|-10-13-|-----------------9-10-12-13--12-13-17-15-15--|
B|---------10p8-6-8-10---------------15----------------|
G|--------------------10-|-----------------------------| part 2
D|-----------------------------------------------------|
A|-----------------------------------------------------|
E|-----------------------------------------------------|

Verse 3: do Verse 2 chords
G C9
Mali man ang ikaw ay ibigin ko
B7 Em
ako'y isang bulag na umiibig sa'yo
Cm Bm Em
at kahit ano pa ang iyong nakaraan
Am D G
mamahalin kita maging sino ka man

I want to post or [tab]
guest
You may want to rate the tab now too:
select rating
Please do not post tabs as comments. Select "correction" instead!