Oops, an error
Loading. Please wait.

Let It In tab

3,988 views 1 this week
1 commentread comment
1 2 3 4 5
x 4
add to favorites
×
Save as Personal and add changes to this tab that will be seen only by you. Learn more ›
×
You can save this tab as Personal to edit and correct it or add notes. All changes will be seen only by you. Learn more »
launch autoscroll
font size
0
reset
how to read this tab
guitar tuner
edit
Autoscroll
slow
fast
+/-
esc
set tempo
stop
Difficulty
Sam Roberts - Let It In 
Tabbed By : Pitty


Standard Tuning

Chords : Rhythm

e|----2----2----7---------2-------------------------------------------------|
B|----3----3----9----7----3-------------------------------------------------|
G|----4----4----9----7----4-------------------------------------------------|
D|----4----4----8----7----4-------------------------------------------------|
A|----2----2----7----5----2-------------------------------------------------|
E|--------------------------------------------------------------------------|


Tabs : Lead -- Repeat throughout whole song

e|--------------------------------------------------------------------------|
B|--------------------------------------------------------------------------|
G|----16-16--14-14----------------------------------------------------------|
D|------------------16-16----14/16--17-17--16-16--12-12--11-----------------|
A|-----------------------------------------------------------14-------------|
E|--------------------------------------------------------------------------|

            
            
Suggest correction
Creating personal tab
Creating personal tab
You can edit any tab online and save it as your Personal.

You can edit, replace or remove any tab part or add personal notes – all changes will be seen only by you.

Personal tabs can be accessed anytime from any device, even offline.
Learn more »
comments
print report bad tab
1 comment total.
+1 reply
jamesmuse 10 Jul 24, 2012 10:46 AM

Saw him playing it live. Definitely like this. Not sure if the High E is included though. Link At the bottom. You had the right chords (kind of) though.

e|--------------7-------------------------------------------
B|----7----7----8----7----7---------------------------------
G|----7----7----9----7----7---------------------------------
D|----9----9----9----7----9---------------------------------
A|----9----9----7----5----9---------------------------------
E|----------------------------------------------------------

http://www.youtube.com/watch?v=qSZY_bcs-NE&feature=results_video&playnext=1&list=PLD831C11418CD60C9

guest
Wanna post a correction for this tab? Suggest correction