Oops, an error
Loading. Please wait.

If You Want It bass

328 views 3 this week
no commentswrite comment
1 2 3 4 5
2 more votes to show rating
add to favorites
×
Save as Personal and add changes to this tab that will be seen only by you. Learn more ›
×
You can save this tab as Personal to edit and correct it or add notes. All changes will be seen only by you. Learn more »
launch autoscroll
font size
0
reset
guitar tuner
edit
Autoscroll
slow
fast
+/-
esc
set tempo
stop
Author
Difficulty
About this tab version
"If You Want It" has a lot of bass improv built onto the main structure of the song. This tab does not go in depth with all the cool stuff you can do with this song and a few of the tabs are not accurate but merely based on the song and made to be playable and easy. By all means, do have fun with this song, it's got a great bass line. Bass on. Was this info helpful? Yes No
[Intro] (0:09)

G|---------------------------------------------------------------------------|
D|--------0-2-2---2-3-3---3-2---0---------0-2-2---2-0-0---0---0--------------|
A|--0-0-3---------------3---------3---0-3-----------------------3-2----------|
E|---------------------------------------------------------------------------|


[Verse 1] (A getaway car full of bullet holes...) (0:19)

G|----------------------------------------------------------00001-2----------|
D|--------0-2-2---2-3-3---3-2---0---------0-2-2---2-0-0---0------------------|
A|--0-0-3-------------------------3-0-0-3------------------------------------|
E|---------------------------------------------------------------------------|

G|---------------------------------------------------------------------------|
D|--------0-2-2---2-3-3---3-2---0---------0-2-2---2-0-0---0---0--------------|
A|--0-0-3---------------3---------3-0-0-3-----------------------3-2----------|
E|---------------------------------------------------------------------------|


[Chorus] (If you want it...) (0:39)
            (h)
G|------2---02--2-----------(h)-------------(h)------------------------------|
D|----------------------5---35--5---2---2---02--2---3-3-3-2-2-2-0------------|
A|--0---------------3---------------------------------------------3----------|
E|---------------------------------------------------------------------------|
            (h)
G|------2---02--2-----------(h)-------------(h)-------------0-0-0-0----------|
D|----------------------5---35--5---2---2---02--2---3-3-3-3------------------|
A|--0---------------3--------------------------------------------------------|
E|---------------------------------------------------------------------------|

[Break]   (0:59)

[Bridge]  (1:03)

G|---------------------------------------------------------------------------|
D|--------0-2-2---2-0-0---0---0----------------------------------------------|
A|--0-0-3-------------------------3-2----------------------------------------|
E|---------------------------------------------------------------------------|

[Verse 2] (Some will fall, some advance...) (1:08)

G|--------------------------------------------------------------0-2----------|
D|--------0-2-2---2-3-3---3-2---0---------0-2-2---0-0-0---0-4-4--------------|
A|--0-0-3---------------3---------3-0-0-3------------------------------------|
E|---------------------------------------------------------------------------|

G|----------------------------------2-2----0-0-------------------------------|
D|--------0-2-2---2-3-3---3-2---0-------2------0---0---0---0---0-------------|
A|--0-0-3---------------3---------3-------------------0---0---0--------------|
E|---------------------------------------------------------------------------|

[Chorus]  (1:28)
            (h)
G|------2---02--2-----------(h)-------------(h)------------------------------|
D|----------------------5---35--5---2---2---02--2---3-3-3-2-2-2-0------------|
A|--0---------------3---------------------------------------------3----------|
E|---------------------------------------------------------------------------|
            (h)
G|------2---02--2-----------(h)-------------(h)-------------0-0-0-0----------|
D|----------------------5---35--5---2---2---02--2---3-3-3-3------------------|
A|--0---------------3--------------------------------------------------------|
E|---------------------------------------------------------------------------|

[Verse 3]  (I remember love, and the stars above...)  (1:47)

G|----------------0----------------------------------------------------------|
D|--------0-2-------3---3-2-0----3-2-----------------------------------------|
A|--0-0-3-----0-3-----0--------0---------------------------------------------|
E|---------------------------------------------------------------------------|  x5

G|----------------0----------------------------------------------------------|
D|--------0-2-------3---3-2-3------------------------------------------------|
A|--0-0-3-----0-3-----0------------------------------------------------------|
E|---------------------------------------------------------------------------|

[Break]  (2:18)

[Chorus] (2:28)
            (h)
G|------2---02--2-----------(h)-------------(h)------------------------------|
D|----------------------5---35--5---2---2---02--2---3-3-3-2-2-2-0------------|
A|--0---------------3---------------------------------------------3----------|
E|---------------------------------------------------------------------------|
            (h)
G|------2---02--2-----------(h)-------------(h)-------------0-0-0-0----------|
D|----------------------5---35--5---2---2---02--2---3-3-3-3------------------|
A|--0---------------3--------------------------------------------------------|
E|---------------------------------------------------------------------------|
            (h)
G|------2---02-5-2----------(h)-------------(h)------------------------------|
D|----------------------5---35--5---2---2---02--2---3-3-3-2-2-2-0------------|
A|--0---------------3---------------------------------------------3----------|
E|---------------------------------------------------------------------------|
            (h)
G|------2---02--2----------(h)-------------(h)-------------0-0-0-0----------|
D|----------------------5---35--5---2---2---02--2---3-3-3-3------------------|
A|--0---------------3--------------------------------------------------------|
E|---------------------------------------------------------------------------|

[Outro]

G|----------------0----------------------------------------------------------|
D|--------0-2-------3---3-2-0----3-2-----------------------------------------|
A|--0-0-3-----0-3-----0--------0---------------------------------------------|
E|---------------------------------------------------------------------------|  x3

G|----------------0----------------------------------------------------------|
D|--------0-2-------3---3-2-3------------------------------------------------|
A|--0-0-3-----0-3-----0------------------------------------------------------|
E|---------------------------------------------------------------------------|

            
            
Suggest correction
Creating personal tab
Creating personal tab
You can edit any tab online and save it as your Personal.

You can edit, replace or remove any tab part or add personal notes – all changes will be seen only by you.

Personal tabs can be accessed anytime from any device, even offline.
Learn more »
Give kudos to tab author, rate the tab!
1 2 3 4 5
comments
print report bad tab
guest
You may want to rate the tab now too:
select rating
Wanna post a correction for this tab? Suggest correction