Oops, an error
Loading. Please wait.

If You Want It Bass Tab

25 views 3 this week
no commentswrite comment
1 2 3 4 5
3 more votes to show rating
add to favorites
launch autoscroll
font size
0
reset
guitar tuner
Autoscroll
slow
fast
+/-
esc
set tempo
stop
Help us to improve Ultimate-Guitar.com Take our survey!
×
Author
Difficulty
intermediate
About this tab version
"If You Want It" has a lot of bass improv built onto the main structure of the song. This tab does not go in depth with all the cool stuff you can do with this song and a few of the tabs are not accurate but merely based on the song and made to be playable and easy. By all means, do have fun with this song, it's got a great bass line. Bass on. Was this info helpful? Yes No
[Intro] (0:09)

G|---------------------------------------------------------------------------|
D|--------0-2-2---2-3-3---3-2---0---------0-2-2---2-0-0---0---0--------------|
A|--0-0-3-------------------------3-0-0-3-----------------------3-2----------|
E|---------------------------------------------------------------------------|


[Verse 1] (A getaway car full of bullet holes...) (0:19)

G|--------------------------------------------------------------0-2----------|
D|--------0-2-2---2-3-3---3-2---0---------0-2-2---2-0-0---0---0--------------|
A|--0-0-3-------------------------3-0-0-3------------------------------------|
E|---------------------------------------------------------------------------|  x2


[Chorus] (If you want it...) (0:39)

G|------2---0-2---------5-------2--------------------------------------------|
D|--------2-------2-2-3---3-2-2---2-0---0-----0-0-2-3-3-3---2-2-0------------|
A|--0-0-----------------------------------0-3---------------------3----------|
E|---------------------------------------------------------------------------|

G|------2---0-2---------5-------2---------------------------0-0-0-0----------|
D|--------2-------2-2-3---3-2-2---2-0---0-----0-0-2-3-3-3-3------------------|
A|--0-0-----------------------------------0-3--------------------------------|
E|---------------------------------------------------------------------------|

[Break] (0:59)

[Bridge]  (1:03)

G|---------------------------------------------------------------------------|
D|--------0-2-2---2-0-0---0---0----------------------------------------------|
A|--0-0-3-------------------------3-2----------------------------------------|
E|---------------------------------------------------------------------------|

[Verse 2] (Some will fall, some advance...) (1:08)

G|--------------------------------------------------------------0-2----------|
D|--------0-2-2---2-3-3---3-2---0---------0-2-2---0-0-0---0---0--------------|
A|--0-0-3-------------------------3-0-0-3------------------------------------|
E|---------------------------------------------------------------------------|

G|----------------------------------2-2----0-0-------------------------------|
D|--------0-2-2---2-3-3---3-2---0-------2------0---0---0---0-----------------|
A|--0-0-3-------------------------3------------------------------------------|
E|---------------------------------------------------------------------------|

[Chorus]  (1:28)

G|------2---0-2---------5-------2--------------------------------------------|
D|--------2-------2-2-3---3-2-2---2-0---0-----0-0-2-3-3-3---2-2-0------------|
A|--0-0-----------------------------------0-3---------------------3----------|
E|---------------------------------------------------------------------------|

G|------2---0-2---------5-------2---------------------------0-0-0-0----------|
D|--------2-------2-2-3---3-2-2---2-0---0-----0-0-2-3-3-3-3------------------|
A|--0-0-----------------------------------0-3--------------------------------|
E|---------------------------------------------------------------------------|

[Verse 3]  (I remember love, and the stars above...)  (1:47)

G|----------------0----------------------------------------------------------|
D|--------0-2-------3---3-2-0----3-2-----------------------------------------|
A|--0-0-3-----0-3-----0--------0---------------------------------------------|
E|---------------------------------------------------------------------------|  x5

G|----------------0----------------------------------------------------------|
D|--------0-2-------3---3-2-3------------------------------------------------|
A|--0-0-3-----0-3-----0------------------------------------------------------|
E|---------------------------------------------------------------------------|

[Break]  (2:18)

[Chorus] x2  (2:28)

G|------2---0-2---------5-------2--------------------------------------------|
D|--------2-------2-2-3---3-2-2---2-0---0-----0-0-2-3-3-3---2-2-0------------|
A|--0-0-----------------------------------0-3---------------------3----------|
E|---------------------------------------------------------------------------|

G|------2---0-2---------5-------2---------------------------0-0-0-0----------|
D|--------2-------2-2-3---3-2-2---2-0---0-----0-0-2-3-3-3-3------------------|
A|--0-0-----------------------------------0-3--------------------------------|
E|---------------------------------------------------------------------------|

[Outro]

G|----------------0----------------------------------------------------------|
D|--------0-2-------3---3-2-0----3-2-----------------------------------------|
A|--0-0-3-----0-3-----0--------0---------------------------------------------|
E|---------------------------------------------------------------------------|  x3

G|----------------0----------------------------------------------------------|
D|--------0-2-------3---3-2-3------------------------------------------------|
A|--0-0-3-----0-3-----0------------------------------------------------------|
E|---------------------------------------------------------------------------|
Suggest correction
Give kudos to tab author, rate the tab!
1 2 3 4 5
comments
print report bad tab
guest
You may want to rate the tab now too:
select rating
Wanna post a correction for this tab? Suggest correction