Oops, an error
Loading. Please wait.

Alguien Tab

by Sam Sam
45 views 1 this week
no commentswrite comment
1 2 3 4 5
3 more votes to show rating
add to favorites
launch autoscroll
font size
0
reset
how to read this tab
guitar tuner
×
Best way to learn
"Alguien"
Autoscroll
slow
fast
+/-
esc
set tempo
stop
INTRO:
                    A        C#m
|---------------|----------|-4--------|
|---------------|-5--------|---5------|
|-----------6-7-|---6------|-----6----|
|-----6-7-9-----|-----7----|----------|
|-7-9-----------|----------|----------|
|---------------|----------|----------|

  D        E
|-5------|-7--------|
|---7----|---9------|
|-----7--|-----9----|
|--------|----------|
|--------|----------|
|--------|----------|


|----------------------|----------|--------|
|----------------------|----------|--------|
|----------------------|----------|--------|
|-------2--------------|-7-6------|-6-4----|
|-0-2-4---4-2-0-4------|----------|--------|
|----------------------|----------|--------|

                       A
|------------|--------------|
|------------|---------2----|
|------------|---------2----|
|-4-2------2-|-4-2-----2----|
|------------|-----4-2-0----|
|------------|--------------|


   A
   Alguien
                  C#m
   Te a dicho te quiero
                       D
   y aunque no sea soltero
           E
   tu has dicho que si

   A
   Alguien
                C#m
   me a robado tu amor
                    D
   me a robado tus besos
              E
   que triste estoy

     A
   Lloro
      C#m
   y sufro
       D
   pensando que tu
        E
   con otro estas

       A
   Me siento muy solo
      C#m
   y deprimido
        D
   y a cada momento
     E
   pienso en ti

     A
   Quien será
    C#m
   aquel amor
         D
   que ocupará
       E
   tu corazón

     A
   Quien será
    C#m
   aquel amor
        D
   que siendo casado
       E
   tu cuerpo beso

     A
   Quien será
       C#m
   el que naufragó
     D
   y en tu cuerpo
        E
  la semilla sembró


SE REPITE LO MISMO QUE
EN LA INTRO

   A           C#m
   Lloro y sufro

       D
   pensando que tu
        E
   con otro estas

       A
   Me siento muy solo
      C#m
   y deprimido
        D
   y a cada momento
     E
   pienso en ti

     A
   Quien será
    C#m
   aquel amor
         D
   que ocupará
       E
   tu corazón

     A
   Quien será
    C#m
   aquel amor
        D
   que siendo casado
       E
   tu cuerpo beso

     A
   Quien será
       C#m
   el que naufragó
     D
   y en tu cuerpo
        E
  la semilla sembró

estos ?Hamer on? sonun poco rápidos para conseguir
el efecto de sonido que se oye en la rola
|--------------|------------------|
|-9H10---------|-10-12H14---------|
|-------9------|------------13----|
|--------------|------------------|
|--------------|------------------|
|--------------|------------------|


|---------------------|---------------|
|---------------------|---------------|
|-----11-11-11-11-----|--13-13-13-13--|
|-11--12-12-12-12--12-|--14-14-14-14--|
|---------------------|---------------|
|---------------------|---------------|


|--------------|------------------|
|-9-10---------|-10--12-14--------|
|-------9------|------------13----|
|--------------|------------------|
|--------------|------------------|
|--------------|------------------|


|---------------|----------|------|
|---------------|----------|------|
|-------11--11--|---9----7-|---6--|
|-11----12--12--|--11----9-|---7--|
|---------------|----------|------|
|---------------|----------|------|


estas notas son las del final después
del bajo
|---------|
|---------|
|----6----|
|-7-------|
|---------|
|---------|
Suggest correction
Give kudos to tab author, rate the tab!
1 2 3 4 5
comments
print report bad tab
guest
You may want to rate the tab now too:
select rating
Wanna post a correction for this tab? Suggest correction