Oops, an error
Loading. Please wait.

Amor Ajeno Tab

version 1
version 1

Whole song

by Sam Sam
148 views 1 this week
no commentswrite comment
1 2 3 4 5
3 more votes to show rating
add to favorites
×
Save as Personal and add changes to this tab that will be seen only by you. Learn more ›
×
You can save this tab as Personal to edit and correct it or add notes. All changes will be seen only by you. Learn more »
save as personal
new!
launch autoscroll
font size
0
reset
how to read this tab
guitar tuner
Autoscroll
slow
fast
+/-
esc
set tempo
stop
Esta es la parte que suena en casi toda la canción.

Espero y les guste.


-------------------------------------------------------
---------------------5-4-------------------------------
----4----4h6----4--------6-4----4h6--------------------
--6----6------6---------------7------7-7---------------
-------------------------------------------------------
-------------------------------------------------------

---------------------x2-|------------------------------
------------------------|------------------------------
------6-6-4----4h6-4----|---4-4-4-4-2---4-2---4-2------
--7-7-------7-----------|-------------4-----4----------
------------------------|------------------------------
------------------------|------------------------------

-------------------------------------------------------
-------------------------------------------------------
-------------------------------------------------------
-7-7-7-7-6---7-6---7-6------6-6-6-6-4---6-4---6-4------
-----------7-----7--------------------6-----6----------
-------------------------------------------------------

-------------------------------------------------------
-------------------------------------------------------
--6-6-6-6-4---6-4---6-4--------------------------------
------------6-----6------------------------------------
-------------------------------------------------------
-------------------------------------------------------

Y así se repite en casi toda la canción.
Si tienen dudas mi correo es mapper8@
Esta es mi primera transcripción.
Gracias.
Suggest correction
Give kudos to tab author, rate the tab!
1 2 3 4 5
comments
print report bad tab
guest
Wanna post a correction for this tab? Suggest correction