Oops, an error
Loading. Please wait.

Amor Ajeno Tab

version 3
version 3

Whole song

86 views 3 this week
no commentswrite comment
1 2 3 4 5
3 more votes to show rating
add to favorites
launch autoscroll
font size
0
reset
how to read this tab
guitar tuner
×
Best way to learn
"Amor Ajeno"
Autoscroll
slow
fast
+/-
esc
set tempo
stop
   e /-------------------------------------------------------------------/
   B /-------------------------------------------------------------------/
   G /-------------------------------------------------------------------/
   D /-7-9/11-11--7--9--13b14--13--11--9--11--7-7--7-9/11--11-11--7--11-9/
   A /-------------------------------------------------------------------/
   E /-------------------------------------------------------------------/


   e /------------------------/
   B /------------------------/
   G /------------------------/
   D /--9-9-9--9-7--9-7--9-7--/
   A /------------------------/
   E /------------------------/


   e /-----------------------------------------------/
   B /-----------------------------------------------/
   G /-----------------------------------------------/
   D /--7-7-7--7-6--6--6h7--6--6--6h7--6--6--6h7--6--/
   A /-----------------------------------------------/
   E /-----------------------------------------------/


   e /-----------------------------------------------/
   B /-----------------------------------------------/
   G /-----------------------------------------------/
   D /--6-6-6--6-4--4--4h6--4--4--4h6--4--4--4h6--4--/
   A /-----------------------------------------------/
   E /-----------------------------------------------/


   e /------------------------------------------------------/
   B /------------------------------------------------------/
   G /------------------------------------------------------/
   D /--11-11-11--11-9--9--9h11--9--9--9h11--9--9--9h11--9--/
   A /------------------------------------------------------/
   E /------------------------------------------------------/


Mi correo es elburritodedios@

Esta rola se la dedico a mi niña especial zeltzin victoria
del cetis 56 amor te amooooooooooooo!!!!
Suggest correction
Give kudos to tab author, rate the tab!
1 2 3 4 5
comments
print report bad tab
guest
You may want to rate the tab now too:
select rating
Wanna post a correction for this tab? Suggest correction