Oops, an error
Loading. Please wait.

Anda Borracho Pancho Tab

version 1
version 1

Whole song

by Sam Sam
166 views 3 this week
no commentswrite comment
1 2 3 4 5
3 more votes to show rating
add to favorites
launch autoscroll
font size
0
reset
how to read this tab
guitar tuner
×
Best way to learn
"Anda Borracho Pancho"
Autoscroll
slow
fast
+/-
esc
set tempo
stop
Esta es el requinto de la rola

Esto va rápido              aquí unos bend
|----------------|--------------------------------------------|
|----------------|-------8---------8---8----------------------|
|----------------|----8-10b-----------10b12r10-----8----8-----|
|-10-8-9-10------|-10---------------------------10---10---10--|
|----------------|--------------------------------------------|
|----------------|--------------------------------------------|


                      
|--------------------------|-----------------|
|--------------------------|-----------------|
|--------------10---8-7----|-----10-----8----|
|-10--10-10-10-12--10-9----|-10--10----10----|
|--------------------------|-----------------|
|--------------------------|-----------------|


|-----------------------|-------------|
|-----------------------|-------------|
|--12-10-8-12-10-8------|-10-----8----|
|-------------------10--|-10----10----|
|-----------------------|-------------|
|-----------------------|-------------|


|-----------------------|---------------|-8-8-8-8-10--8-7----|
|-----------------------|---------------|-9-9-9-9-11--9-8----|
|-12-10-8-12-10-8-------|-10-----8------|--------------------|
|------------------10---|-10----10------|--------------------|
|-----------------------|---------------|--------------------|
|-----------------------|---------------|--------------------|


está tal y como viene en el disco
¡a huevo hay que ser rocker!
Ser rocker significa fuerza y movimiento
Suggest correction
Give kudos to tab author, rate the tab!
1 2 3 4 5
comments
print report bad tab
guest
You may want to rate the tab now too:
select rating
Wanna post a correction for this tab? Suggest correction