Oops, an error
Loading. Please wait.

Anda Borracho Pancho Tab

version 2
version 2

Whole song

110 views 1 this week
no commentswrite comment
1 2 3 4 5
3 more votes to show rating
add to favorites
launch autoscroll
font size
0
reset
how to read this tab
guitar tuner
Autoscroll
slow
fast
+/-
esc
set tempo
stop
Help us to improve Ultimate-Guitar.com Take our survey!
×
ESTA ROLA SELA DE DICO A TODAS ESAS VIEJAS QUE NOS PAGAN MAL

INTRODUCCION

Fm SIb Cm A G#7 Cm G#7

1-------------------------------------------3---3-------------I
2------------------------------1-3-1-------4-4---4------------I
3-5PO4-5-7-8--7-5-4-5-1--3PO1-3------3-1--5---5---5-----------I
4----------------------------------------5---------5----------I
5-------------------------------------------------------------I
6-------------------------------------------------------------I

1--------------------------------3H4PO3-----------------3-----I
2----------------------------------------3H4PO3---------3-----I
3----5-4------5-5---5-5-5-7-5--4----------------4-5-----4-----I
4--5-----7-5--6-6---6-6-6-8-6--5------------------------3-----I
5-------------------------------------------------------5-----I
6-------------------------------------------------------3-----I
               Cm
CARGANDO UNA PENA
             Fm
SE ENCUENTRA EL
                SIb
GIMIENDO Y LLORANDO
          Cm
POR UNA MUJER


EL VICIO ES SU ALADO
             Fm
SE PIERDE EN EL
              SIb
Y YA POR EL BARRIO
                Cm
SE HABLA MAL DE EL

              Fm
QUE ES UN BORRACHO
             SIb
UN AVE SIN RUMBO
            Cm
UN TONTO HARAGAN

   Cm
LLORANDO
SIb               Cm
COMO SI FUERA UN NIÑO
SIb                    Cm
EL CUAL PERDIERA UN JUGUETE
A                  G#7
DE INCALCULABLE VALOR

  Cm
TOMANDO
SIb                       Cm  SIb
QUISIERA  AHOGAR SUS PROBLEMAS
    Cm
SUFRIENDO
A                 G#7
POR UNA INGRATA MUJER

                Cm
ANDA BORRACHO PANCHO
SIb                 Cm
POR ESAS CALLES DE DIOS
SIb                      Cm
CAGUAMA EN MANO POR EL BARRIO
A                      G#7
CANTANDO CANCIONES DE AMOR

                Cm
ANDA BORRACHO PANCHO
SIb                  Cm
POR QUE SU VIEJA LO DEJO
SIb                   Cm
PISTOLA EN MANO LO CORRIO
A                     G#7
Y AHORA SE SIENTE SOLITARIO

   Cm  Fm
EL 19 DE NOVIEMBRE
 SIb               Cm
PANCHO NUNCA LO OLVIDARA
              Fm
SAN JUANICO ESTABA EN LLAMAS
 SIb               Cm
Y EN SU HOGAR EXPLOTABA EL SEXO

         Fm
SU MUJER LO ENGAÑABA
SIb             Cm
CON EL ARRENDADOR DE IMPUESTOS
            Fm
DIA Y NOCHE SE BURLABAN
SIb                  Cm
SE ENTREGABAN ASU PASION
A                   G#7
SE ENTREGABAN ASU PASION

Cm       Fm
ESE DIA DE LA EXPLOSION
    SIb         Cm
DE MADRUGADA LLEGO ASU CANTON
                     Fm
Y ENCONTRO QUE LA QUEMAZON
SIb               Cm
ERA EN SU CAMA A TODO COLOR

            Fm
EL ARMO MUCHO MITOTE
SIb           Cm
PERO SU VIEJA LO CONTROLO
                    Fm
DESPUES PISTOLA EN MANO
    A                      Cm
AL POBRE PANCHO ALA CHINA MANDO

              Cm
ANDABORRACHO PANCHO
SIb                 Cm
POR ESAS CALLES DE DIOS
SIb                      Cm
PISTOLA EN MANO POR EL BARRIO
A                      G#7
CANTANDO CANCIONES DE AMOR

                Cm
ANDA BORRACHO PANCHO
SIb                   Cm
POR QUE SU TORTA LO DEJO
SIb                   Cm
PISTOLA EN MANO LO CORRIO
A                     G#7
Y AHORA SE SIENTE SOLITARIO

1-------------------------------------------------------------I
2--------------------8--------------------------8-------------I
3---------------8-10B-108B-----8--8B-------8-10B-10-8B--------I
4-10PO8H9H10--10------------10--10--10B-10--------------------I
5-------------------------------------------------------------I
6-------------------------------------------------------------I


1--------------11--10-----------------------------------------I
2--------------13--12-----------------------------------------I
3-----8--8B----13--12----8-10-8--12-10--12PO10----------------I
4--10--10--10B-13--12--10--12-10------13------13-12-10--------I
5-------------------------------------------------------------I
6-------------------------------------------------------------I


1---------8-8-8-8-8-8-8-8-8-8----7----------------------------I
2---------9-9-9-9-9-9-9-9-9-9----8----------------------------I
3-10--8-------------------------------------------------------I
4-12--10------------------------------------------------------I
5-------------------------------------------------------------I
6-------------------------------------------------------------I

EL 19 DE NOVIEMBRE.....

SIMBOLOGIA UTILIZADA
H:HAMMER ON
PO:PULL OF
B:BEND
Suggest correction
Give kudos to tab author, rate the tab!
1 2 3 4 5
comments
print report bad tab
guest
You may want to rate the tab now too:
select rating
Wanna post a correction for this tab? Suggest correction