Oops, an error
Loading. Please wait.

Como Dona A Su Agujero Tab

version 1
version 1

Whole song

65 views 1 this week
no commentswrite comment
1 2 3 4 5
3 more votes to show rating
add to favorites
launch autoscroll
font size
0
reset
how to read this tab
guitar tuner
×
Best way to learn
"Como Dona A Su Agujero"
Autoscroll
slow
fast
+/-
esc
set tempo
stop
  intro

    Gtr I
||-----------------------|
||o----------------------|
||----------------6------|
||--9-6-9-9-6-9-9---6----|
||o----------------------|
||-----------------------|


|--------------------------||
|-------------------------o||
|--------------------------||
|-6--4-2-2---2-2-6-6-4-----||
|----------4--------------o||
|--------------------------||


|--------------------------|
|--------------------------|
|--------------------------|
|-4-6-4-2-2---2-2-6-6-4----|
|-----------4--------------|
|--------------------------|


|-------------------|--------|
|-------------------|--------|
|-----------------6-|-6-4----|
|-4-6-4-2-2---2-2---|--------|
|-----------4-------|--------|
|-------------------|--------|


este es el solo


|---------------|---------------|---------------|
|-9-9-9-10-9----|-9-9-9-10-9----|-9-9-9-10-9----|
|-9-9-9--9-9----|-9-9-9--9-9----|-9-9-9--9-9----|
|---------------|---------------|---------------|
|---------------|---------------|---------------|
|---------------|---------------|---------------|


|------------|
|-7-7-9-7----|
|-9-9-9-9----|
|------------|
|------------|
|------------|


esta parte se toca rapido 
                     ~~~~~~~~~~~~~~~
|-12-11-9----------------------------------------------|
|---------12-10-9---------9----------------------------|
|-----------------9h11br-11--(11)-11p9----9----9-11----|
|--------------------------------------11---11---------|
|------------------------------------------------------|
|------------------------------------------------------|


|----------------------------------------------|
|-------9-9-------9-9-------9------------------|
|-11b13-----11b13-----11b13---11b13r11---------|
|----------------------------------------------|
|----------------------------------------------|
|----------------------------------------------|


                      ~~~~~~~~~~~~~~~~~~~~~
|-12-11-9---------------------|--------------------------|------------|
|---------12-10-9-------------|---9----------------------|------------|
|------------------9h11b13r---|-(11)--(11)--11p9----9----|----9-11----|
|-----------------------------|------------------11------|-11---------|
|-----------------------------|--------------------------|------------|
|-----------------------------|--------------------------|------------|


|-----------------------------|--------------|
|-------9-9-------9-9-------9-|--------------|
|-11b13-----11b13-----11b13---|-11b13r=11----|
|-----------------------------|--------------|
|-----------------------------|--------------|
|-----------------------------|--------------|


|---------------|---------------|---------------|
|-9-9-9-10-9----|-9-9-9-10-9----|-9-9-9-10-9----|
|-9-9-9--9-9----|-9-9-9--9-9----|-9-9-9--9-9----|
|---------------|---------------|---------------|
|---------------|---------------|---------------|
|---------------|---------------|---------------|


|------------|
|-7-7-9-7----|
|-9-9-9-9----|
|------------|
|------------|
|------------|

solo hay que escuchar bien la rola para
tocarlo a tiempo y tocar bien los bends
Suggest correction
Give kudos to tab author, rate the tab!
1 2 3 4 5
comments
print report bad tab
guest
You may want to rate the tab now too:
select rating
Wanna post a correction for this tab? Suggest correction