Oops, an error
Loading. Please wait.

Como Dona A Su Agujero Tab

version 2
version 2

Whole song

by Sam Sam
56 views 3 this week
no commentswrite comment
1 2 3 4 5
3 more votes to show rating
add to favorites
launch autoscroll
font size
0
reset
how to read this tab
guitar tuner
×
Best way to learn
"Como Dona A Su Agujero"
Autoscroll
slow
fast
+/-
esc
set tempo
stop
Este es el inicio de la canción como dona a su agujero de 
sam sam

Ahorita estoy sacando el requinto de en medio


E/----------------------------------------
A/------9---12---12---9---------------9-------
D/---7----------------------77---9-------
G/--------------------------------------
B/---------------------------------------
e/---------------------------------------

E/---------------------------------------
A/---97---5-525597----------------
D/-------------------------------------
G/---------------------------------------
B/------------------------------------------
E/--------------------------------------------        (por 2)


E/----------------------------------------
A/------7/9/75-525-597----------------
D/----------------------------------------
G/--------------------------------------
B/---------------------------------------
e/---------------------------------------

E/---------------------------------------
A/---7/9/7---5-5255-----------------
D/-------------------------------97--
G/---------------------------------------
B/------------------------------------------
e/--------------------------------------------

se oye bien chido manden mas canciones banda
Suggest correction
Give kudos to tab author, rate the tab!
1 2 3 4 5
comments
print report bad tab
guest
You may want to rate the tab now too:
select rating
Wanna post a correction for this tab? Suggest correction