Oops, an error
Loading. Please wait.

Lorenzo Quintana Tab

74 views 3 this week
no commentswrite comment
1 2 3 4 5
3 more votes to show rating
add to favorites
launch autoscroll
font size
0
reset
how to read this tab
guitar tuner
×
Best way to learn
"Lorenzo Quintana"
Autoscroll
slow
fast
+/-
esc
set tempo
stop
Dm                                          F#  G  G#  A
   Quémala donde la encuentres


Autoridades lo decían
      
D      C      A#      A
|-------------|-------------|-------------|----------------|
|-------------|-------------|-------------|----------------|
|-------------|-------------|-------------|----------------|
|-7-7-9-7-7-7-|-5-5-7-5-5-5-|-3-3-5-3-3-3-|-2-2-4-2-2-2----|
|-5-5-5-5-5-5-|-3-3-3-3-3-3-|-1-1-1-1-1-1-|-0-0-0-0-0-0----|
|-------------|-------------|-------------|----------------|

      D      C
|----------------|---------|
|----------------|---------|
|----------------|---------|
|-7-7-9-7-7-7----|-5-5-----|
|-5-5-5-5-5-5----|-3-3-----|
|----------------|---------|

Esta parte es una 
improvisación del solo
con los acordes anteriores
  
|----------------------------------------------13b14-10----10-10-10---|
|----------------------------10----10-13-10-13----------13------------|
|----------10----10-12-10-12----12------------------------------------|
|-12-10-12----12------------------------------------------------------|
|---------------------------------------------------------------------|
|---------------------------------------------------------------------|


|-----------------|
|-10-----10-------|
|-12b14r12b14-----|
|-----------------|
|-----------------|
|-----------------|

A5-G5-A5-F5-G5-A5-G5 

A5
Quémala donde la encuentres

G5      Am
Autoridades lo decían

Am                                            G
Este chavo loco inconsciente la quemo 

                   Am
y acabó con sus días

       C          G             F            E7
Por andar en las calles encontró una tonta muerte

       C          G              F          E7
La quemó tantas veces que en el viaje se quedó

Am                G                        
Año del 79 en un barrio del 

              Am
distrito federal  conoce a Lorenzo Quintana

      G                    Am
camellaba de mesero en un bar

        F     G     Am
Era un chavo muy vivaz 

        G               Am
que no le ponía a las drogas

        F      G      Am
de su chamba a su hogar

       G               Am 
su destino iba a cambiar

       C            G
de la noche a la mañana

      F      E7
un vicioso se volvió 

      C            G           F             E7 
nadie nunca supo nada que fue lo que lo cambió

       Am
se juntó con las bandas que hay en Neza 

      F         G             Am      
se juntó con la policía corrupta


se juntó con los panchos y los rockers

      F           G              Am  
se juntó con trasverguis y maricas


le puso tantas veces al cemento

F      G      Am
que perdió la cuenta su cerebro


por las calles muchas veces inconsciente

       F              G             Am      
por las drogas y la falta de alimentos


       C          G             F            E7
Por andar en las calles encontró una tonta muerte

       C          G              F          E7
La quemó tantas veces que en el viaje se quedó


se juntó con las bandas que hay en Neza 

      F         G             Am      
se juntó con la policía corrupta


se juntó con los panchos y los rockers

      F           G              Am  
se juntó con trasverguis y maricas


le puso tantas veces al cemento

F      G      Am
que perdió la cuenta su cerebro


por las calles muriendo como un perro

       F              G             Am      
por las drogas y la falta de alimentos


     C           G                F     
sus padres estan llorando no se explican

      E7       C            G          F
la razón de la noche a la mañana Lorenzo 

          Am
desapareció

A5-G5-A5-F5-G5 
quemala  
A5-G5-A5-F5-G5
quemala    
espero que les guste esta
transcripcion
saludos a la banda némesis
a huevo hay que ser rockers
Suggest correction
Give kudos to tab author, rate the tab!
1 2 3 4 5
comments
print report bad tab
guest
You may want to rate the tab now too:
select rating
Wanna post a correction for this tab? Suggest correction