Oops, an error
Loading. Please wait.

Silvia (Dulce Melodia) Tab

49 views 1 this week
no commentswrite comment
1 2 3 4 5
3 more votes to show rating
add to favorites
launch autoscroll
font size
0
reset
how to read this tab
guitar tuner
×
Best way to learn
"Silvia (dulce Melodia)"
Autoscroll
slow
fast
+/-
esc
set tempo
stop
 
E----------------|---------------|
B----------------|---------------|
G--9-8-6---6-----|-6--8--6---6-8-|
D--------9---9-6-|---------------|
A----------------|---------------|
E----------------|---------------|


E-------------------|
B-------------------
D-9-8-6-8-4--6-4----|
G-------------------|
A-------------------|
E-------------------|


E------------------|---------------|--------|
B------------------|---------------|--------|
G-9-8-6---6-----6--|-8-6--6--8-9-8-|-6-8----|
D-------9---9-6----|---------------|--------|
A------------------|---------------|--------|
E------------------|---------------|--------|


Esta parte se toca 2 veces

E----------------12-9-9-9--|
B-------5------5------9-9--|
G--7b(9)--7b(9)------------|
D--------------------------|
A--------------------------|
E--------------------------|

Esta tambien 2 veces

E--------------------10-7-7-7--|
B--------7--------7-------7-7--|
G--9b(11)--9b(11)--------------|
D------------------------------|
A------------------------------|
E------------------------------|


E-15-15-15-15-15-15-15-15----|
B-15-15-15-15-15-15-15-15----|
G----------------------------|
D----------------------------|
A----------------------------|
E----------------------------|


E-14-14-14-14-14-14-14-14-|
B-14-14-14-14-14-14-14-14-|
G-------------------------|
D-------------------------|
A-------------------------|
E-------------------------|


E-8-8-8-8-8-8-8-8-|-7-7-7-7-7-7---|
B-8-8-8-8-8-8-8-8-|-7-7-7-7-7-7---|
G-----------------|---------------|
D-----------------|---------------|
A-----------------|---------------|
E-----------------|---------------|


empieza con mi menor Em:


   Em    D      C       B7
|-^0--|--^2--|--^0--|--^2---|
|-^0--|--^3--|--^1--|--^4---|
|-^0--|--^2--|--^0--|--^2---|
|-^2--|--^0--|--^2--|--^4---|
|-^2--|------|--^3--|--^2---|
|-^0--|------|------|--^2---|

estoy tomando por ti y eso me hace 
sentirme feliz etc...


y cuando empieza la otra parte, 
empieza con mi mayor E:

se que estoy tomando por ti
este amor no solo fue un fuego...etc.
 


Esto va en la parte del final:

'se que estoy sufriendo por ti'

    Em
|---^0----|--15----|
|---^0----|--17----|
|---^0----|--------|
|---^2----|--------|
|---^2----|--------|
|---^0----|--------|


sobres...
¿alguna duda?

los rocker de oaxaca somos de coraza
Suggest correction
Give kudos to tab author, rate the tab!
1 2 3 4 5
comments
print report bad tab
guest
You may want to rate the tab now too:
select rating
Wanna post a correction for this tab? Suggest correction