Oops, an error
Loading. Please wait.

Tonto Tab

by Sam Sam
44 views 3 this week
no commentswrite comment
1 2 3 4 5
3 more votes to show rating
add to favorites
launch autoscroll
font size
0
reset
how to read this tab
guitar tuner
Autoscroll
slow
fast
+/-
esc
set tempo
stop
*INTRO*

                    G                        Bm
e|-3-3--------------3-------3-3--------------------2----|
A|-----5-3-5-3------3-----------5-3-5-3----------3------|
D|-------------4-0--4-------------------4-0----4--------|
G|------------------5------------------------4----------|
B|------------------5-----------------------------------|
E|------------------3-----------------------------------|

                    Am                      D                    X2
e|-3-3--------------0--------3-3--------------2---------|
A|-----5-3-5-3------1------------5-3-5-3------3---------|
D|-------------4-0--2--------------------4-0--2---------|
G|------------------2-------------------------0---------|
B|------------------0-------------------------0---------|
E|------------------0-------------------------0---------|


                        G
Estoy muriendo por tu amor
                   Bm
estoy muriendo por tus besos
                   Am
el cabalgar tanto en tu cuerpo
                   D
me hizo perder la razón.


                        G
Y como un tonto ahora ando
                   Bm
calmando esta sed de amor
                   Am
me pierdo y vago por los bares
                   D
oyendo una triste canción de amor.


 C
Me hace gritar de rabia
 G
el pensar que no estás aquí
 C
soy un cero a la izquerda en tu vida
 D
fui el tonto de tu colección.


  Tonto, que me crei de tus palabras,
e|---------------------------------------------------------------|
A|---------------------------------------------------------------|
D|-0------0--0----0----------------------------------------------|
G|---2---------3-----3--2--0--2--2-------------------------------|
B|---------------------------------------------------------------|
E|---------------------------------------------------------------|

   Que me creí de tus besitos que por ahí tu me dabas
e|---------------------------------------------------------------|
A|---------------------------------------------------------------|
D|-0--0----0-------------------------------------2--2--0---------|
G|------3-----3--2--0--3--3----3--3--2--3--2--3------------------|
B|---------------------------------------------------------------|
E|---------------------------------------------------------------|
  tonto, y me emborracho yo por ti
e|---------------------------------------------------------------|
A|---------------------------------------------------------------|
D|-0------0--0----0----------------------------------------------|
G|---2---------3-----3--2--0--2--2-------------------------------|
B|---------------------------------------------------------------|
E|---------------------------------------------------------------|

  Me pierdo y vago por los bares, oyendo una triste canción de amor
e|----------------------------------------------------------------|
A|----------------------------------------------------------------|
D|-0--0----0-------------------------------------2--2--0----------|
G|------3-----3--2--0--3--3----3--3--2--3--2--3-------------------|
B|----------------------------------------------------------------|
E|----------------------------------------------------------------|

 C
Soy el burro de tu colección
 G
que calmó tu sed de amor
 C
una copa de vino en tus labios
 D
que se derrama de pasión.


*SOLO*

e|-7---------------7---------------7----------------7---------------|
A|---9--7------------9--7-------------9--7------------9--7----------|
D|--------8-8-9-8---------8-8-8-8----------8-8-8-8----------8-8-8-8-|
G|--------9-9-9-9---------9-9-9-9----------8-8-8-8----------8-8-8-8-|
B|------------------------------------------------------------------|
E|------------------------------------------------------------------|

e|-7---------------7---------------9-------9------------9-------9---|
A|---9--7------------9--7------------12-10---12---10/12---12-10---12|
D|--------9-9-9-9---------9-9-9-9-----------------------------------|
G|--------9-9-9-9---------9-9-9-9-----------------------------------|
B|------------------------------------------------------------------|
E|------------------------------------------------------------------|

e|------------------------------------------------------------------|
A|---7---7/9--7----7--------------7----7/9--7-----------------------|
D|-8---8--------8----8--6--4---8----8---------8--6--4---------------|
G|------------------------------------------------------------------|
B|------------------------------------------------------------------|
E|------------------------------------------------------------------|

e|--------------------------6--7--7-7-7---5-5-5---4-4-4---2-2-2-----|
A|---7----7/9--7-----7--9---------9-9-9---7-7-7---5-5-5---4-4-4-----|
D|-9---9----------9-------------------------------------------------|
G|------------------------------------------------------------------|
B|------------------------------------------------------------------|
E|------------------------------------------------------------------|


*----------------------------------------------*
Ahí está banda espero que les sirva            |
Dudas o comentarios a blpalacios51@ |
*----------------------------------------------*
Suggest correction
Give kudos to tab author, rate the tab!
1 2 3 4 5
comments
print report bad tab
guest
Wanna post a correction for this tab? Suggest correction