Oops, an error
Loading. Please wait.

Writings On The Wall Chords

version 3
version 3

Whole song

Interactive

706 views 30 this week
no commentswrite comment
1 2 3 4 5
2 more votes to show rating
add to favorites
launch autoscroll
font size
0
reset
transpose
0
reset
display chords
guitar tuner
Autoscroll
slow
fast
+/-
esc
set tempo
stop
Help us to improve Ultimate-Guitar.com Take our survey!
×
Author
Difficulty
novice
[Intro]
e|-2-----2-----2-----2------|-2-----2-----2-----2------|
B|---0-----0-----0-----0----|---0-----0-----0-----0----|
G|-----0-----0-----0-----0--|-----0-----0-----0-----0--| x2
D|--------------------------|--------------------------|
A|-2------------------------|--------------------------|
E|--------------------------|-3------------------------|

[Verse]
e|-2-----2-----2-----2------|-2-----2-----2-----2------|
B|---0-----0-----0-----0----|---0-----0-----0-----0----|
G|-----0-----0-----0-----0--|-----0-----0-----0-----0--|
D|--------------------------|--------------------------|
A|-2------------------------|--------------------------|
E|--------------------------|-3------------------------|
         I've been here    before

e|-2-----2-----2-----2------|-2-----2-----2-----2------|
B|---0-----0-----0-----0----|---0-----0-----0-----0----|
G|-----0-----0-----0-----0--|-----0-----0-----0-----0--|
D|--------------------------|--------------------------|
A|-2------------------------|--------------------------|
E|--------------------------|-3------------------------|
         But always hit the floor                  I've 

e|-0-----0-----0-----0------|-0-----0-----0-----0------|
B|---0-----0-----0-----0----|---0-----0-----0-----0----|
G|-----0-----0-----0-----0--|-----4-----4-----4-----4--|
D|--------------------------|--------------------------|
A|-3------------------------|-2------------------------|
E|--------------------------|--------------------------|
 spent a lifetime running And I always get away   But with 

e|-0-----0-----0-----0------|-0-----0------------------|
B|---0-----0-----0-----0----|---0-----0-------------4--|
G|-----0-----0-----0-----0--|-----4-----4-----------4--|
D|--------------------------|--------------------------|
A|-3------------------------|-2---------------------2--|
E|--------------------------|--------------------------|
  you I'm feeling something That makes me want to stay

e|-2-----2-----2-----2------|-2-----2-----2-----2------|
B|---0-----0-----0-----0----|---0-----0-----0-----0----|
G|-----0-----0-----0-----0--|-----0-----0-----0-----0--|
D|--------------------------|--------------------------|
A|-2------------------------|--------------------------|
E|--------------------------|-3------------------------|
         I'm prepared for   this

e|-2-----2-----2-----2------|-2-----2-----2-----2------|
B|---0-----0-----0-----0----|---0-----0-----0-----0----|
G|-----0-----0-----0-----0--|-----0-----0-----0-----0--|
D|--------------------------|--------------------------|
A|-2------------------------|--------------------------|
E|--------------------------|-3------------------------|
       I never shoot to      miss                But I 

e|-0-----0-----0-----0------|-0-----0-----0-----0------|
B|---0-----0-----0-----0----|---0-----0-----0-----0----|
G|-----0-----0-----0-----0--|-----4-----4-----4-----4--|
D|--------------------------|--------------------------|
A|-3------------------------|-2------------------------|
E|--------------------------|--------------------------|
  feel like a storm is coming If I'm gonna make it through the day Then there's 

e|-0-----0-----0-----0------|-0-----0------------------|
B|---0-----0-----0-----0----|---0-----0-------------4--|
G|-----0-----0-----0-----0--|-----4-----4-----------4--|
D|--------------------------|--------------------------|
A|-3------------------------|-2---------------------2--|
E|--------------------------|--------------------------|
  no more use in running This is something I gotta face

[Pre-Chorus]
Em    D  G      C 
   If I risk it all
Em        D    G       B
   Could you break my fall?

[Chorus]
          Em              D
How do I live? How do I breathe?
                 C               D
When you're not here I'm suffocating
                Em                    D
I want to feel love, run through my blood
             C                      Bm
Tell me is this where I give it all up?
     Am                   Bm     B 
For you I have to risk it all
Cause the writing's on the 

e|-2-----2-----2-----2------|-2-----2-----2-----2------|
B|---0-----0-----0-----0----|---0-----0-----0-----0----|
G|-----0-----0-----0-----0--|-----0-----0-----0-----0--|
D|--------------------------|--------------------------|
A|-2------------------------|--------------------------|
E|--------------------------|-3------------------------|
  wall

[Verse 2]
e|-2-----2-----2-----2------|-2-----2-----2-----2------|
B|---0-----0-----0-----0----|---0-----0-----0-----0----|
G|-----0-----0-----0-----0--|-----0-----0-----0-----0--|
D|--------------------------|--------------------------|
A|-2------------------------|--------------------------|
E|--------------------------|-3------------------------|
         A million shards of glass

e|-2-----2-----2-----2------|-2-----2-----2-----2------|
B|---0-----0-----0-----0----|---0-----0-----0-----0----|
G|-----0-----0-----0-----0--|-----0-----0-----0-----0--|
D|--------------------------|--------------------------|
A|-2------------------------|--------------------------|
E|--------------------------|-3------------------------|
       That haunt me from my past                 As the   

e|-0-----0-----0-----0------|-0-----0-----0-----0------|
B|---0-----0-----0-----0----|---0-----0-----0-----0----|
G|-----0-----0-----0-----0--|-----4-----4-----4-----4--|
D|--------------------------|--------------------------|
A|-3------------------------|-2------------------------|
E|--------------------------|--------------------------|
 stars begin to gather And the light begins to fade When all 

e|-0-----0-----0-----0------|-0-----0------------------|
B|---0-----0-----0-----0----|---0-----0-------------4--|
G|-----0-----0-----0-----0--|-----4-----4-----------4--|
D|--------------------------|--------------------------|
A|-3------------------------|-2---------------------2--|
E|--------------------------|--------------------------|
  hope begins to shatter. Know that I won't be   afraid

[Pre-Chorus]
Em     D  G      C
    If I risk it all
Em         D    G       Bm
    Could you break my fall?

[Chorus]
          Em              D
How do I live? How do I breathe?
                 C               D
When you're not here I'm suffocating
                Em                    D
I want to feel love, run through my blood
             C                      Bm
Tell me is this where I give it all up?
     Am                   Bm       B
For you I have to risk it all
Cause the writing's on the

[Bridge]
e|-2-----2-----2-----2------|-2-----2-----2-----2------|
B|---0-----0-----0-----0----|---0-----0-----0-----0----|
G|-----0-----0-----0-----0--|-----0-----0-----0-----0--|
D|--------------------------|--------------------------|
A|-2------------------------|--------------------------|
E|--------------------------|-3------------------------|
  wall                  The writing's on the 

e|-2-----2-----2-----2------|-2-----2-----2-----2------|
B|---0-----0-----0-----0----|---0-----0-----0-----0----|
G|-----0-----0-----0-----0--|-----0-----0-----0-----0--|
D|--------------------------|--------------------------|
A|-2------------------------|--------------------------|
E|--------------------------|-3------------------------|
  wall

e|-0-----0-----0-----0------|-0-----0-----0-----0------|
B|---0-----0-----0-----0----|---0-----0-----0-----0----|
G|-----0-----0-----0-----0--|-----4-----4-----4-----4--|
D|--------------------------|--------------------------|
A|-3------------------------|-2------------------------|
E|--------------------------|--------------------------|

e|-0-----0-----0-----0------|-0-----0------------------|
B|---0-----0-----0-----0----|---0-----0-------------4--|
G|-----0-----0-----0-----0--|-----4-----4-----------4--|
D|--------------------------|--------------------------|
A|-3------------------------|-2---------------------2--|
E|--------------------------|--------------------------|

[Chorus]
          Em              D
How do I live? How do I breathe?
                 C               D
When you're not here I'm suffocating
                Em                    D
I want to feel love, run through my blood
             C                      Bm
Tell me is this where I give it all up?
          Em              D
How do I live? How do I breathe?
                 C               D
When you're not here I'm suffocating
                Em                    D
I want to feel love, run through my blood
             C                      Bm
Tell me is this where I give it all up?
     Am                   Bm       B
For you I have to risk it all
Cause the writing's on the wall
Suggest correction
Give kudos to tab author, rate the tab!
1 2 3 4 5
comments
print report bad tab
guest
You may want to rate the tab now too:
select rating
Wanna post a correction for this tab? Suggest correction