Oops, an error
Loading. Please wait.

Im In With The Out Crowd Chords

321 views 1 this week
no commentswrite comment
1 2 3 4 5
3 more votes to show rating
add to favorites
launch autoscroll
font size
0
reset
transpose
0
reset
simplify chords
display chords
guitar tuner
Autoscroll
slow
fast
+/-
esc
set tempo
stop
Help us to improve Ultimate-Guitar.com Take our survey!
×
Author
Difficulty
intermediate
(I'm in with) the Out Crowd
by Sam the Sham and the Pharaohs
from albums such as Ju Ju Hand (1989, PolyGram Special Products) and others

INTRO (PATTERN 1)

F               G
I'm in with the out crowd

F               G
I'm in with the out crowd


BRIDGE 1 (PATTERN 2)

C   C     F F  (play it four times)


VERSE 1 (PATTERN 3)

C       
Not so long ago I couldn't make the scene

C     
The in crowd wouldn't have me 'caus I had no green

F
I used to hear them giggle at the clothes i'd wear

G                                         
And everytime I'd pass'em they would stop and stare


CHORUS 1 (PATTERN 4)

F               G                  F     G       C
I'm in with the out crowd but they never seem to care

F     G           C           A7          D7    D6      G
If my clothes are patched and worn or the way I wear my hair

F               G                  F    G        C
I'm in with the out crowd and it's very plain to see

F             G     C          A7             D7     D6     G
We don't have fancy clothes and cars but we're groovy as can be


BRIDGE 2 (PATTERN 5)

G (four strums)


SOLO PART

a) Rhythm Section: PATTERN 3 (Verse), PATTERN 1 (Intro), PATTERN 2 (Bridge)

b) Sax Solo tabbed for guitar

e-------------------------------------------------------------------------
B----13-13~--------------------------------13~-----------13---------------
G----------14b13b12--------------12--12b14------12-13b14----14b13b12------
D-------------------14--------14-------------------------------------14---
A----------------------15-15-------------------------------------------15-
E-------------------------------------------------------------------------

                                        Can this many people be wrong baby
e-------------------------------------------------------------------------
B------------------------13-----------------13----------------13~---------
G-12-14----12------13b14----14-12-----13b14----14-12----13b14-------------
D-------14------15-----------------15----------------15-------------------
A-------------------------------------------------------------------------
E-------------------------------------------------------------------------

e-------------------------------------------------------------------------
B---------15---------------------------------13~--------------------------
G---15b16----15b16-15b16~--12-14-12--11b12--------14-12-----12------------
D--------------------------------------------------------15----12---------
A-------------------------------------------------------------------------
E-------------------------------------------------------------------------

e-------------------------------------------------------------------------
B----13~13~13-------------------------------------------------------------
G-------------14-12-----12------------------10-10-----------10-10---------
D--------------------15------12------10--10---------10--10----------------
A-------------------------------------------------------------------------
E-------------------------------------------------------------------------


VERSE 2 (Pattern 3)

C       
with out crowd always knows just where it's at

C     
They never come on strong like phoney diplomats

F
We may not say to much but never think we're square

G                                         
A cadillac and fancy clothes don't put you there


CHORUS 2 (PATTERN 4)

F               G                  F     G       C
I'm in with the out crowd but they never seem to care

F     G           C           A7          D7    D6      G
If my clothes are patched and worn or the way I wear my hair



OUTRO (PATTERN 1) played until fade-out

F               G
I'm in with the out crowd

F               G
I'm in with the out crowd 


# lyrics and chords suggested by ace pete
# It is really fun to play that sax solo on guitar...
Suggest correction
Give kudos to tab author, rate the tab!
1 2 3 4 5
comments
print report bad tab
guest
You may want to rate the tab now too:
select rating
Wanna post a correction for this tab? Suggest correction