Oops, an error
Loading. Please wait.

Love Isnt ukulele

109 views 1 this week
no commentswrite comment
1 2 3 4 5
3 more votes to show rating
add to favorites
×
Save as Personal and add changes to this tab that will be seen only by you. Learn more ›
×
You can save this tab as Personal to edit and correct it or add notes. All changes will be seen only by you. Learn more »
launch autoscroll
font size
0
reset
transpose
0
reset
simplify chords
display chords
guitar tuner
edit
Autoscroll
slow
fast
+/-
esc
set tempo
stop
Difficulty
Strumming
There is no strumming pattern for this song yet. and get +5 IQ
Title       : Love Isnt
Artist      : Same Same
Album       : The meaning of Happy

Ear tabber  : Walter Michael De la Cruz 
E-mail add 1: Walterfdelacruz@yahoo.com
E-mail add 2: Michaelfdelacruz@yahoo.com 

School      : Saint Louis University, Baguio City
Date of Tab : July 10,2006


No one can deny that sibling Supergroup, The Moffatts,
was one of the most successful pop group in the 90's

This year, the twins from the group Clint and Bob, 
are poised to take on Asia by storm. Their band is named Same Same
The BAnd that Gave you the song Supermodel.
HeRe's Their Latest one "Love Isn't".
Hope you like this one. Please Rate my work if you have time.
This song goes to all the people who requested me in Friendster.
 

------
Intro |
------

H  hammer
() ghost note
p  pull
X  Palm mute

    Em           C       G      D/F#
e|---3------|---3-----|------|-----|-------------|
B|-----5----|-----5---|------|-----|-------------|
G|-------4--|-------5-|--4-4-|--4--|-2h4p2--0----|
D|----------|---------|------|-----|-------------|  
A|----------|-3-------|------|-----|-------------|
E|-0--------|---------|--3-3-|--5--|---------(0)-|

     Em          C        G      D
e|---3------|---3-----|------|--2-2-X-X------|
B|-----5----|-----5---|------|------X-X------|
G|-------4--|-------5-|--4-4-|------X-X------|
D|----------|---------|------|--0-0-X-X------|  
A|----------|-3-------|------|------X-X------|
E|-0--------|---------|--3-3-|------X-X------|


-------
Verse 1| The Plucking here is the same as the intro
-------

Em           C                G      D/F#
Do you ever wake up in the morning alone? 

Em                C                  G             D
And do you ever wish that there was some way you could stay at home? 

Em         C         G             D/F#
With somebody who loves you and needs you 

Em         C         G          D
With somebody who helps to complete you 

-------
REfrain|
-------

D9 : XX0210

                 Am                    
But Ive made mistakes and I know for sure 
 
  C                   D9
I wont forget to remember 


-------
Chorus |
-------

      G
Love isnt 

  D            C   D
Always as you see it 

       G
Love isnt 

 D             C     D
Always as you dream it should be 

       Em
Love isnt 

  C           G -  A7
Always gonna find you 

              Am7
But this is love 

D9
Cause youre all Im thinking of 


    Em           C       G      A
e|---3------|---3-----|------|-----|-------------|
B|-----5----|-----5---|------|-----|-------------|
G|-------4--|-------5-|--4-4-|--4--|-2h4p2--0----|
D|----------|---------|------|-----|-------------|  
A|----------|-3-------|------|-----|-------------|
E|-0--------|---------|--3-3-|--5--|---------(0)-|

     Em          C        G      D
e|---3------|---3-----|------|--2-2-X-X------|
B|-----5----|-----5---|------|------X-X------|
G|-------4--|-------5-|--4-4-|------X-X------|
D|----------|---------|------|--0-0-X-X------|  
A|----------|-3-------|------|------X-X------|
E|-0--------|---------|--3-3-|------X-X------|


-------
Verse 3| The Strumming here is the same as the intro
-------

Em           C            G            D/F#
I wanna tell you that im sorry i didnt mean that

Em           C            G            D
I wanna say I love you but will I hear those words come back 

Em          C       G           D/F#
From somebody who loves me and needs me 

Em          C       G           D
From somebody who helps to complete me 


-------
REfrain|
-------

            Am          
But theres one concern that I must consider 

C                            D9
Before I start to paint my picture 


-------
Chorus |
-------

      G
Love isnt 

  D            C   D
Always as you see it 

       G
Love isnt 

 D             C     D
Always as you dream it should be 

       Em
Love isnt 

  C           G -  A7
Always gonna find you 

              Am7
But this is love 

D9                           G
Cause youre all Im thinking of 


-------
Bridge:|
-------

           Em         D
Im gonna take my chances 

     G            Am               C            D         G
Im gonna lay my heart out on the line (on the line this time) 

          Em           D  G
Im gonna love you endlessly 

              C                      CM7- D9
But Ill keep this in the back of my mind


G - D  - C -D
Love isnt always

G - D  - C  - D
Love isnt always

Em -C-G-A7-Am7
always

   D9
love


-------
Chorus |
-------

      G
Love isnt 

  D            C   D
Always as you see it 

       G
Love isnt 

 D             C     D
Always as you dream it should be 

       Em
Love isnt 

  C           G -  A7
Always gonna find you 

              Am7
But this is love 

D9                           G
Cause youre all Im thinking of 


      G
Love isnt 

  D            C   D
Always as you see it 

       G
Love isnt 

 D             C     D
Always as you dream it should be 

       Em
Love isnt 

  C           G -  A7
Always gonna find you 

              Am7
But this is love 

D9                           G
Cause youre all Im thinking of 

------
Outro:|
------


    Em           C       G      D/F#
e|---3------|---3-----|------|-----|-------------|
B|-----5----|-----5---|------|-----|-------------|
G|-------4--|-------5-|--4-4-|--4--|-2h4p2--0----|
D|----------|---------|------|-----|-------------|  
A|----------|-3-------|------|-----|-------------|
E|-0--------|---------|--3-3-|--5--|---------(0)-|

     Em          C        G      D
e|---3------|---3-----|------|--2-2-X-X------|
B|-----5----|-----5---|------|------X-X------|
G|-------4--|-------5-|--4-4-|------X-X------|
D|----------|---------|------|--0-0-X-X------|  
A|----------|-3-------|------|------X-X------|
E|-0--------|---------|--3-3-|------X-X------|




For comments send me a message in Friendster. 

E-mail add 1: Walterfdelacruz@yahoo.com
E-mail add 2: Michaelfdelacruz@yahoo.com 

And u Can also add me as your friend Or send me a testimonial.hehehe
God bless!


Thanks.
Rock oUt.
Walter Rocks Ultimate Guitar!

            
            
Suggest correction
Creating personal tab
Creating personal tab
You can edit any tab online and save it as your Personal.

You can edit, replace or remove any tab part or add personal notes – all changes will be seen only by you.

Personal tabs can be accessed anytime from any device, even offline.
Learn more »
Give kudos to tab author, rate the tab!
1 2 3 4 5
comments
print report bad tab
guest
Wanna post a correction for this tab? Suggest correction