Oops, an error
Loading. Please wait.

Birthright Bass Tab

13 views 1 this week
no commentswrite comment
1 2 3 4 5
3 more votes to show rating
add to favorites
launch autoscroll
font size
0
reset
guitar tuner
Autoscroll
slow
fast
+/-
esc
set tempo
stop
Help us to improve Ultimate-Guitar.com Take our survey!
×
Author
Difficulty
novice
                             SAMHAIN - BIRTHRIGHT

Tabbed by: Rottney (reconssuck)
E-mail: reconssuck@hotmail.de

Artist: Samhain
Song: Birthright
Album: November Coming Fire (1986)
Bassist: Eerie Von


[Intro] x2

G|------------|------------|------------------|------------|------------|-----------------|
D|------------|------------|------------------|------------|------------|-----------------|
A|-4--4-4-4-4-|-4--4-4-4-4-|-4--4-4-4-4--4-4--|------------|------------|-----------------|
E|------------|------------|------------------|-3--3-3-3-3-|-3--3-3-3-3-|-3--3-3-3-3--3-3-|


[Verse] x8

G|----------------------|---------|
D|----------------------|---------|
A|-5-7-7--5--7-7--5-7-7-|---------|
E|----------------------|-7-7-7---|


[Chorus] x4

G|------------|------------|------------|--------|
D|------------|------------|------------|--------|
A|------------|-1--1-1-1-1-|-4--4-4-4-4-|--------|
E|-3--3-3-3-3-|------------|------------|-3-3-3--|


[Intro] x2

G|------------|------------|------------------|------------|------------|-----------------|
D|------------|------------|------------------|------------|------------|-----------------|
A|-4--4-4-4-4-|-4--4-4-4-4-|-4--4-4-4-4--4-4--|------------|------------|-----------------|
E|------------|------------|------------------|-3--3-3-3-3-|-3--3-3-3-3-|-3--3-3-3-3--3-3-|

[Verse] x8

G|----------------------|---------|
D|----------------------|---------|
A|-5-7-7--5--7-7--5-7-7-|---------|
E|----------------------|-7-7-7---|


[Chorus] x4

G|------------|------------|------------|--------|
D|------------|------------|------------|--------|
A|------------|-1--1-1-1-1-|-4--4-4-4-4-|--------|
E|-3--3-3-3-3-|------------|------------|-3-3-3--|

[Intro] x6

G|------------|------------|------------------|------------|------------|-----------------|
D|------------|------------|------------------|------------|------------|-----------------|
A|-4--4-4-4-4-|-4--4-4-4-4-|-4--4-4-4-4--4-4--|------------|------------|-----------------|
E|------------|------------|------------------|-3--3-3-3-3-|-3--3-3-3-3-|-3--3-3-3-3--3-3-|


[Outro]

G|--------|
D|--------|
A|--------|
E|-0------|



That's All.
Enjoy and Rate.
Suggest correction
Give kudos to tab author, rate the tab!
1 2 3 4 5
comments
print report bad tab
guest
You may want to rate the tab now too:
select rating
Wanna post a correction for this tab? Suggest correction