Oops, an error
Loading. Please wait.

Diabolos 88 Tab

342 views 1 this week
1 commentread comment
1 2 3 4 5
1 last vote to show rating
add to favorites
launch autoscroll
font size
0
reset
how to read this tab
guitar tuner
×
Best way to learn
"Diabolos 88"
Autoscroll
slow
fast
+/-
esc
set tempo
stop
Band: Samhain
Song: Diabolos 88

Tabber: John Cukras
Email: riffreaper@yahoo.com

Tuning: Normal

Riff 1: 
E--------------------------
B--------------------------
G--------------------------
D--------------------------
A----5-------8-------------
E-55---55-55---------------

Riff 2:
E--------------------------
B--------------------------
G--------------------------
D--------------------------
A----1-------4-------------
E-11---11-11---------------

Alternates between the two of them till the end.
Easy.
Suggest correction
Give kudos to tab author, rate the tab!
1 2 3 4 5
comments
print report bad tab
1 comment total.
0 reply
Thefallofman 811 Aug 25, 2006 05:54 PM

Whoever gave this 5 stars is tone-deaf. It should look like this.
G|---------------------9----|
D|7--7-7--10--7-7--7-7-7--7-|
A|0--0-0---0--0-0--0-0----0-|
E|--------------------------|
Then it moves into Em, the same thing, just a string lower.

guest
You may want to rate the tab now too:
select rating
Wanna post a correction for this tab? Suggest correction