Oops, an error
Loading. Please wait.

Initium album bass

by Samhain
379 views 3 this week
no commentswrite comment
1 2 3 4 5
2 more votes to show rating
add to favorites
×
Save as Personal and add changes to this tab that will be seen only by you. Learn more ›
×
You can save this tab as Personal to edit and correct it or add notes. All changes will be seen only by you. Learn more »
launch autoscroll
font size
0
reset
guitar tuner
edit
Autoscroll
slow
fast
+/-
esc
set tempo
stop
          %%%%%%%%%%%%%%%%%%%%%%%%%%%%%%%%%%%%%%%%%%%%%%%%%%%%%
          %%%%%%%%%%%%%%%        INITIUM        %%%%%%%%%%%%%%%      
          %%%%%%%%%%%%%%%%%%%%%%%%%%%%%%%%%%%%%%%%%%%%%%%%%%%%%



INITIUM
=======

The wind effects featured on this song can be recreated by using a
bass (played with a pick), a distortion or fuzz unit, and a delay
pedal. This method was employed by Steve and Glenn when they made 
the original track.

Samhain
=======
Main Riff
G|-----------------------|
D|-----------------------|
A|-----------------------|
E|-5-xxx-5-xxx-5-xxx-5-6-|

Chorus
G|----------------------------|
D|----------------------------|
A|-7(x16)-8(x8)-7(x16)-10(x8)-|
E|----------------------------|


Black Dream
===========
Riff 1
G|-----------------|
D|-----------------|
A|88888888---4—6---|
E|---------4-------|

Riff 2
G|-----------------|
D|-----------------|
A|88888888---6-4---|
E|---------4-------|

Riff 3
G|-------------------|
D|-------------------|
A|-33333333-44444444-|
E|-------------------|

Riff 4
G|-------------------|
D|-------------------|
A|-88888888-99999999-|
E|-------------------|



All Murder All Guts All Fun
===========================

Verse                                              
G+------------------------------------+             
D+------------------------------------+            
A+-33333333--------666666666----------+             
E+---------66666666----------33333333-+            

Verse riff-variant played every once in a while    
G+-------------------------------------+            
D+-------------------------------------+
A+-33333333----------66666666-88888888-+
E+----------66666666-------------------+

Bridge
G+------------------------------+
D+------------------------------+
A+-----------------8-8-8-8-8-8--+
E+-xx3-xx3-xx3-xx---------------+


Macabre
=======
Main Riff
G|-----------------|
D|-----------------|
A|-----5-5-5-4-----|
E|-3-3-------------|

Chorus
G|-----------------------------|
D|-----------------------------|
A|-----------------------------|
E|-666666666666666666666666----|
On second time do it 32 times


He-Who-Can-Not-Be-Named
=======================

Main Riff Pt.1
G|-----------------|
D|-----------------|
A|-----66----------|
E|--88----66--88---|

Main Riff Pt.2
G|--------------------|
D|--------------------|
A|----6-666-----------|
E|-88-------66—8-888--|

Bridge
G|----------------------------------|
D|----------------------------------|
A|----------------------6-----6-----|
E|-66666666-66666666--8---6-8---6---|


Horror Biz
==========

Main Riff
G|--------------------|
D|--------------------|
A|--------------------|
E|-6-3-XXXXXXXXXXXXX--|

First Verse Break
G|--------------------------------|
D|--------------------------------|
A|--------------------------------|
E|-6666666666666666-5-5-5-5-5-5-5-|

Second Verse Break
G|-------------------------------------------|
D|-------------------------------------------|
A|-------------------------------------------|
E|-6666666666666666-5-5-5-5-5-5-8-8-8-8-8-8--|

Chorus
G|-------------------------------------|
D|-------------------------------------|
A|-88888888----------------------------|
E|----------88888888-66666666-88888888-|


The Shift
=========

Main Riff
G|-----------------------------------------|
D|-----------------------------------------|
A|7-7777777-6-6666666-5-5555555-4-4444444--|
E|-----------------------------------------|

Chorus
G|-----------------------------------------|
D|-----------------------------------------|
A|-----------------------------------------|
E|-7-7777777-6-6666666-5(X16)--8-8888888---|

Chorus continuation
G|-------------------------------------------------------------|
D|-------------------------------------------------------------|
A|--------------------------------------------5-5555555—2-2----|
E|7-7777777-6(x16)-9-9999999-8-8888888-7(x16)------------------| 


The Howl
========

Intro/Main Riff [Ten] 
G|----------------------|
D|-—--7---7------10-----|
A|--5---55---888--------|
E|----------------------|

Chorus
G|------------------------------------------|
D|------------------------------------------|
A|------------------33333333----------------|
E|-44444444-33333333----------4-444--3-333--|

Fill played every once in a while
G|----66-----88---|
D|-666----888-----|
A|----------------|
E|----------------|

End Riff
G|-----------------------------------------|
D|-----------------------------------------|
A|-33333333-444--------333333333-666-------|
E|--------------4-44-----------------6-66--|


Archangel
=========
Intro
G|------------------------------------|
D|------------------------------------|
A|-5-----5-----5--------5---5-------5-|
E|----------------7--8---------7-8----|

Riff 1
G|----------------------------|
D|----------------------------|X6
A|-55555555----------77777777-|
E|----------55555555----------|

Riff 2
G|----------------------------|
D|----------------------------|
A|-55555555-22222222-33333333-|
E|----------------------------|

Riff 3
G|---------------------|
D|--55555555-----------|
A|-----------55555555--|
E|---------------------|

Intro(x1)
Riff 1(x6)
Riff 2(x2)
Riff 1(x4)
Riff 2(x2)
Riff 1(x4)
Riff 3(x3)
Riff 1 (repeat till end)
Suggest correction
Creating personal tab
Creating personal tab
You can edit any tab online and save it as your Personal.

You can edit, replace or remove any tab part or add personal notes – all changes will be seen only by you.

Personal tabs can be accessed anytime from any device, even offline.
Learn more »
Give kudos to tab author, rate the tab!
1 2 3 4 5
comments
print report bad tab
guest
Wanna post a correction for this tab? Suggest correction