Oops, an error
Loading. Please wait.

Kiss Of Steel Bass Tab

7 views 1 this week
no commentswrite comment
1 2 3 4 5
3 more votes to show rating
add to favorites
launch autoscroll
font size
0
reset
guitar tuner
Autoscroll
slow
fast
+/-
esc
set tempo
stop
Help us to improve Ultimate-Guitar.com Take our survey!
×
Author
Difficulty
novice
                             SAMHAIN - KISS OF STEEL

Tabbed by: Rottney (reconssuck)
E-mail: reconssuck@hotmail.de

Artist: Samhain
Song: Kiss Of Steel
Album: November Coming Fire (1986)
Bassist: Eerie Von


Tuning: Standard (EADG)


[Verse] x3

G|------------------------|------------------------|-------------------------|
D|------------------------|------------------------|-------------------------|
A|-------------7--7--7--7-|-------------7--7--7--7-|--------------7--7--7--7-|
E|-7--7--7--7-------------|-7--7--7--7-------------|-7--7--7--7--------------|

G|------------------------|
D|------------------------|
A|------------------------|
E|-3-3-3-3-3--2-2-2-2-2-2-|

[Chorus]

G|---------------|---------------|---------------|---------------|
D|---------------|---------------|---------------|---------------|
A|---------------|-3-3-3-3-3-3-3-|---------------|-3-3-3-3-3-3-3-|
E|-5-5-5-5-5-5-5-|---------------|-5-5-5-5-5-5-5-|---------------|

G|-------------------------|-------------------------|
D|-------------------------|-------------------------|
A|-------------------------|-------------------------|
E|-3-3-3-3-3-3-3-3-3-3-3-3-|-2-2-2-2-2-2-2-2-2-2-2-2-|

[Verse] x2

G|------------------------|------------------------|-------------------------|
D|------------------------|------------------------|-------------------------|
A|-------------7--7--7--7-|-------------7--7--7--7-|--------------7--7--7--7-|
E|-7--7--7--7-------------|-7--7--7--7-------------|-7--7--7--7--------------|

G|------------------------|
D|------------------------|
A|------------------------|
E|-3-3-3-3-3--2-2-2-2-2-2-|

[Chorus]

G|---------------|---------------|---------------|---------------|
D|---------------|---------------|---------------|---------------|
A|---------------|-3-3-3-3-3-3-3-|---------------|-3-3-3-3-3-3-3-|
E|-5-5-5-5-5-5-5-|---------------|-5-5-5-5-5-5-5-|---------------|

G|-------------------------|-------------------------|
D|-------------------------|-------------------------|
A|-------------------------|-------------------------|
E|-3-3-3-3-3-3-3-3-3-3-3-3-|-2-2-2-2-2-2-2-2-2-2-2-2-|

[Verse] x2

G|------------------------|------------------------|-------------------------|
D|------------------------|------------------------|-------------------------|
A|-------------7--7--7--7-|-------------7--7--7--7-|--------------7--7--7--7-|
E|-7--7--7--7-------------|-7--7--7--7-------------|-7--7--7--7--------------|

G|-------------------|
D|-------------------|
A|-------------------|
E|-3-3-3-3-3--2------|

let last note ring out.


That's all.
Enjoy and Rate.


Suggest correction
Give kudos to tab author, rate the tab!
1 2 3 4 5
comments
print report bad tab
guest
You may want to rate the tab now too:
select rating
Wanna post a correction for this tab? Suggest correction