Oops, an error
Loading. Please wait.

Kiss Of Steel Tab

by Samhain
412 views 1 this week
2 commentsread comments
1 2 3 4 5
2 more votes to show rating
add to favorites
launch autoscroll
font size
0
reset
how to read this tab
guitar tuner
×
Best way to learn
"Kiss Of Steel"
Autoscroll
slow
fast
+/-
esc
set tempo
stop
Band: Samhain
Song: Kiss of Steel

tabber: John Cukras
Email: riffreaper@yahoo.com

Tuning: normal

riff 1:
E------------------------------
B------------------------------
G------------------------------
D-44444-77777------------------
A-22222-55555 x's 3--5-4-------
E--------------------3-2  x's 3

Riff 2:
E------------------------------
B------------------------------
G------------------------------
D----7-----7-------------------
A-7--5--7--5---5---4-----------
E-5-----5------3---2-----------

Riff 1 x's 2

Riff 2

Riff 1 x's 2
Suggest correction
Give kudos to tab author, rate the tab!
1 2 3 4 5
comments
print report bad tab
2 comments total.
0 reply
drgolovacroxby 10 Mar 18, 2016 02:01 PM

Most of these chords are completely incorrect. It should go ((B-E)x3 G F#) for the verse, and A C A C G F# for the chorus.

0 reply
drgolovacroxby 10 Mar 18, 2016 02:03 PM

riff 1:
E------------------------------
B------------------------------
G------------------------------
D-44444-99999------------------
A-22222-77777 x's 3--5-4-------
E--------------------3-2 x's 3

Riff 2:
E------------------------------
B------------------------------
G------------------------------
D----5-----5-------------------
A-7--3--7--3---5---4-----------
E-5-----5------3---2-----------

Riff 1 x's 2

Riff 2

Riff 1 x's 2

guest
You may want to rate the tab now too:
select rating
Wanna post a correction for this tab? Suggest correction