Oops, an error
Loading. Please wait.

Let The Day Begin Bass Tab

13 views 1 this week
no commentswrite comment
1 2 3 4 5
3 more votes to show rating
add to favorites
launch autoscroll
font size
0
reset
guitar tuner
Autoscroll
slow
fast
+/-
esc
set tempo
stop
Help us to improve Ultimate-Guitar.com Take our survey!
×
Author
Difficulty
novice
                             SAMHAIN - LET THE DAY BEGIN

Tabbed by: Rottney (reconssuck)
E-mail: reconssuck@hotmail.de

Artist: Samhain
Song: Let The Day Begin
Album: November Coming Fire (1986)
Bassist: Eerie Von


Tuning: Standard (EADG)


[Main Riff] x3

G|-------------------------------------|
D|-------------------------------------|
A|-------------------------------------|
E|-4-4-4-4-4-4-4-4--7-7-7-7--2-2-2-2---|

[End of Main Riff]

G|----------------------------|
D|----------------------------|
A|----------------------------|
E|-4-4-4-4-4-4-4-4-4-4-4-4-4--|

[Main Riff] x3

G|-------------------------------------|
D|-------------------------------------|
A|-------------------------------------|
E|-4-4-4-4-4-4-4-4--7-7-7-7--2-2-2-2---|

[End of Main Riff]

G|----------------------------|
D|----------------------------|
A|----------------------------|
E|-4-4-4-4-4-4-4-4-4-4-4-4-4--|

[Main Riff] x3

G|-------------------------------------|
D|-------------------------------------|
A|-------------------------------------|
E|-4-4-4-4-4-4-4-4--7-7-7-7--2-2-2-2---|

[End of Main Riff]

G|----------------------------|
D|----------------------------|
A|----------------------------|
E|-4-4-4-4-4-4-4-4-4-4-4-4-4--|


[Chorus] x2

G|----------------------------------------------------------|
D|----------------------------------------------------------|
A|-6-6-6-6-6-6-6-6-6-6-6-6-6-6-6-----------------9-9--------|
E|--------------------------------7-7-7-7-7-7-7-------9-9---|

[End of Chorus]

G|-----------------------------------|
D|-----------------------------------|
A|-6-6-6-6-6-6-6-6-6-6-6-6-6-6-6-6---|
E|-----------------------------------|

[Main Riff] x3

G|-------------------------------------|
D|-------------------------------------|
A|-------------------------------------|
E|-4-4-4-4-4-4-4-4--7-7-7-7--2-2-2-2---|

[End of Main Riff]

G|----------------------------|
D|----------------------------|
A|----------------------------|
E|-4-4-4-4-4-4-4-4-4-4-4-4-4--|


[Main Riff] x3

G|-------------------------------------|
D|-------------------------------------|
A|-------------------------------------|
E|-4-4-4-4-4-4-4-4--7-7-7-7--2-2-2-2---|

[End of Main Riff]

G|----------------------------|
D|----------------------------|
A|----------------------------|
E|-4-4-4-4-4-4-4-4-4-4-4-4-4--|


[Main Riff] x3

G|-------------------------------------|
D|-------------------------------------|
A|-------------------------------------|
E|-4-4-4-4-4-4-4-4--7-7-7-7--2-2-2-2---|

[End of Main Riff]

G|----------------------------|
D|----------------------------|
A|----------------------------|
E|-4-4-4-4-4-4-4-4-4-4-4-4-4--|

[Chorus] x2

G|----------------------------------------------------------|
D|----------------------------------------------------------|
A|-6-6-6-6-6-6-6-6-6-6-6-6-6-6-6-----------------9-9--------|
E|--------------------------------7-7-7-7-7-7-7-------9-9---|


[End of Chorus]

G|-----------------------------------|
D|-----------------------------------|
A|-6-6-6-6-6-6-6-6-6-6-6-6-6-6-6-6---|
E|-----------------------------------|

[Main Riff] x3

G|-------------------------------------|
D|-------------------------------------|
A|-------------------------------------|
E|-4-4-4-4-4-4-4-4--7-7-7-7--2-2-2-2---|

[End of Main Riff]

G|----------------------------|
D|----------------------------|
A|----------------------------|
E|-4-4-4-4-4-4-4-4-4-4-4-4-4--|

[Chorus] x2

G|----------------------------------------------------------|
D|----------------------------------------------------------|
A|-6-6-6-6-6-6-6-6-6-6-6-6-6-6-6-----------------9-9--------|
E|--------------------------------7-7-7-7-7-7-7-------9-9---|


[End of Chorus]

G|-----------------------------------|
D|-----------------------------------|
A|-6-6-6-6-6-6-6-6-6-6-6-6-6-6-6-6---|
E|-----------------------------------|

[Main Riff] x3

G|-------------------------------------|
D|-------------------------------------|
A|-------------------------------------|
E|-4-4-4-4-4-4-4-4--7-7-7-7--2-2-2-2---|

[End of Main Riff]

G|----------------------------|
D|----------------------------|
A|----------------------------|
E|-4-4-4-4-4-4-4-4-4-4-4-4-4--|

[Main Riff] x3

G|-------------------------------------|
D|-------------------------------------|
A|-------------------------------------|
E|-4-4-4-4-4-4-4-4--7-7-7-7--2-2-2-2---|

[End of Main Riff]

G|----------------------------|
D|----------------------------|
A|----------------------------|
E|-4-4-4-4-4-4-4-4-4-4-4-4-4--|


[Chorus] x3

G|----------------------------------------------------------|
D|----------------------------------------------------------|
A|-6-6-6-6-6-6-6-6-6-6-6-6-6-6-6-----------------9-9--------|
E|--------------------------------7-7-7-7-7-7-7-------9-9---|

[Last Chorus]

G|-----------------------------------------------------------|
D|-----------------------------------------------------------|
A|-6-6-6-6-6-6-6-6-6-6-6-6-6-6-6-----------------9-9---------|
E|--------------------------------7-7-7-7-7-7-7-------9-9--4-|

song ends, let last note ring out




That's all.
Enjoy and Rate
Suggest correction
Give kudos to tab author, rate the tab!
1 2 3 4 5
comments
print report bad tab
guest
You may want to rate the tab now too:
select rating
Wanna post a correction for this tab? Suggest correction