Oops, an error
Loading. Please wait.

Lords Of The Left Hand Bass Tab

10 views 1 this week
no commentswrite comment
1 2 3 4 5
3 more votes to show rating
add to favorites
launch autoscroll
font size
0
reset
guitar tuner
Autoscroll
slow
fast
+/-
esc
set tempo
stop
Help us to improve Ultimate-Guitar.com Take our survey!
×
Author
Difficulty
novice
About this tab version
This Tab is based on the "Final Descent" Album version. There is also a second version of this song (bonus track) on the "Final Descent" album which has a different bassline but the same notes. Was this info helpful? Yes No
                             SAMHAIN - LORDS OF THE LEFT HAND

Tabbed by: Rottney (reconssuck)
E-mail: reconssuck@hotmail.de

Artist: Samhain
Song: Lords Of The Left Hand
Album: Final Descent (1990)
Bassist: Eerie Von


Tuning: Standard (EADG)

[Main Bassline] x16

G|--------------|-----------------|
D|--------------|---------3-3-----|
A|-2-2-2--5-5-5-|-2-2-2-2-----3-3-|
E|--------------|-----------------|


[Chorus] x3

G|---------|---------|-----------------|
D|---------|---------|-----------------|
A|-7-7-7-7-|-5-5-5-5-|-4-4-4-4-4-4-4-4-|
E|---------|---------|-----------------|

[Chorus End]

G|---------|---------|---------------|
D|---------|---------|---------------|
A|-5-5-5-5-|-4-4-4-4-|-7-7-7-7-7-7-7-|
E|---------|---------|---------------|

[Main Bassline] x12

G|--------------|-----------------|
D|--------------|---------3-3-----|
A|-2-2-2--5-5-5-|-2-2-2-2-----3-3-|
E|--------------|-----------------|

[Chorus] x3

G|---------|---------|-----------------|
D|---------|---------|-----------------|
A|-7-7-7-7-|-5-5-5-5-|-4-4-4-4-4-4-4-4-|
E|---------|---------|-----------------|

[Chorus End]

G|---------|---------|---------------|
D|---------|---------|---------------|
A|-5-5-5-5-|-4-4-4-4-|-7-7-7-7-7-7-7-|
E|---------|---------|---------------|


[Main Bassline] x12

G|--------------|-----------------|
D|--------------|---------3-3-----|
A|-2-2-2--5-5-5-|-2-2-2-2-----3-3-|
E|--------------|-----------------|


[Chorus] x3

G|---------|---------|-----------------|
D|---------|---------|-----------------|
A|-7-7-7-7-|-5-5-5-5-|-4-4-4-4-4-4-4-4-|
E|---------|---------|-----------------|

[Chorus End]

G|---------|---------|---------------|
D|---------|---------|---------------|
A|-5-5-5-5-|-4-4-4-4-|-7-7-7-7-7-7-7-|
E|---------|---------|---------------|


[Main Bassline] x4

G|--------------|-----------------|
D|--------------|---------3-3-----|
A|-2-2-2--5-5-5-|-2-2-2-2-----3-3-|
E|--------------|-----------------|


[Outro]

G|--------|-------|
D|--------|-------|
A|-2------|-2---2-|
E|--------|-------|




That's All
Enjoy and Rate.
Suggest correction
Give kudos to tab author, rate the tab!
1 2 3 4 5
comments
print report bad tab
guest
You may want to rate the tab now too:
select rating
Wanna post a correction for this tab? Suggest correction