Oops, an error
Loading. Please wait.

Novembers Fire Bass Tab

version 2
version 2

Whole song

  • The other Bass tab has several inaccuracies in Ver... Show more

Interactive

7 views 1 this week
no commentswrite comment
1 2 3 4 5
3 more votes to show rating
add to favorites
launch autoscroll
font size
0
reset
guitar tuner
Autoscroll
slow
fast
+/-
esc
set tempo
stop
Help us to improve Ultimate-Guitar.com Take our survey!
×
Author
Difficulty
novice
About this tab version
The other Bass tab has several inaccuracies in Verse and Intro, and it does not indicate how many times the parts should be repeeated. Was this info helpful? Yes No
                             SAMHAIN - NOVEMBERS FIRE

Tabbed by: Rottney (reconssuck)
E-mail: reconssuck@hotmail.de

Artist: Samhain
Song: Novembers Fire
Album: November Coming Fire (1986)
Bassist: Eerie Von


[Intro] x8

G|--------------|
D|--------------|
A|-0---7--6--5--|
E|--------------|


[Verse] x8

G|--------------|
D|--------------|
A|-----5--4--3--|
E|-3------------|


[Chorus] x2

G|------------------|-----------------|-----------------|------------------|
D|------------------|-----------------|-----------------|------------------|
A|-5-5-5-5-5-5-5-5--|-8-8-8-8---------|-6-6-6-6-6-6-6-6-|------------------|
E|------------------|---------8-8-8-8-|-----------------|--6-6-6-6-6-6-6-6-|


[Verse] x8

G|--------------|
D|--------------|
A|-----5--4--3--|
E|-3------------|


[Chorus] x2

G|------------------|-----------------|-----------------|------------------|
D|------------------|-----------------|-----------------|------------------|
A|-5-5-5-5-5-5-5-5--|-8-8-8-8---------|-6-6-6-6-6-6-6-6-|------------------|
E|------------------|---------8-8-8-8-|-----------------|--6-6-6-6-6-6-6-6-|


[Interlude] x8

G|--------------|
D|--------------|
A|-0---7--6--5--|
E|--------------|


[Verse] x8

G|--------------|
D|--------------|
A|-----5--4--3--|
E|-3------------|


[Chorus] x4

G|------------------|-----------------|-----------------|------------------|
D|------------------|-----------------|-----------------|------------------|
A|-5-5-5-5-5-5-5-5--|-8-8-8-8---------|-6-6-6-6-6-6-6-6-|------------------|
E|------------------|---------8-8-8-8-|-----------------|--6-6-6-6-6-6-6-6-|


[Outro] x27

G|--------------|
D|--------------|
A|-0---7--6--5--|
E|--------------|


That's all.
Enjoy and Rate.
Suggest correction
Give kudos to tab author, rate the tab!
1 2 3 4 5
comments
print report bad tab
guest
You may want to rate the tab now too:
select rating
Wanna post a correction for this tab? Suggest correction