Oops, an error
Loading. Please wait.

Samhain Bass Tab

13 views 1 this week
no commentswrite comment
1 2 3 4 5
3 more votes to show rating
add to favorites
launch autoscroll
font size
0
reset
guitar tuner
Autoscroll
slow
fast
+/-
esc
set tempo
stop
Help us to improve Ultimate-Guitar.com Take our survey!
×
Author
Difficulty
novice
                             SAMHAIN - SAMHAIN

Tabbed by: Rottney (reconssuck)
E-mail: reconssuck@hotmail.de

Artist: Samhain
Song: Samhain
Album: Initium (1984)
Bassist: Eerie Von


Tuning: Standard (EADG)



[Verse] x4

G|---------------------------------------------------------------------------|
D|---------------------------------------------------------------------------|
A|---------------------------------------------------------------------------|
E|-5--5-5-5-5--5-5-5-5--5-5-5-5-6-6-6-6-6-6----------------------------------|


[Chorus] x2

G|-------------------------------------------------------------------------------------|
D|-------------------------------------------------------------------------------------|
A|-------------------------------------------------------------------------------------|
E|-7--7-7-7-7--7-7-7-7--7-7-7-7-8-8-8-8-8--7--7-7-7-7--7-7-7-7--7-7-7-7-10-10-10-10-10-|


[Verse] x4

G|---------------------------------------------------------------------------|
D|---------------------------------------------------------------------------|
A|---------------------------------------------------------------------------|
E|-5--5-5-5-5--5-5-5-5--5-5-5-6-6-6-6-6-6------------------------------------|


[Chorus] x2

G|-------------------------------------------------------------------------------------|
D|-------------------------------------------------------------------------------------|
A|-------------------------------------------------------------------------------------|
E|-7--7-7-7-7--7-7-7-7--7-7-7-7-8-8-8-8-8--7--7-7-7-7--7-7-7-7--7-7-7-7-10-10-10-10-10-|


[Verse Variation] x4

G|---------------------------------------------------------------------------|
D|---------------------------------------------------------------------------|
A|---------------------------------------------------------------------------|
E|-5--5-5-5-5--5-5-5-5--5-5-5-6-6--------------------------------------------|


[Chorus] x2

G|-------------------------------------------------------------------------------------|
D|-------------------------------------------------------------------------------------|
A|-------------------------------------------------------------------------------------|
E|-7--7-7-7-7--7-7-7-7--7-7-7-7-8-8-8-8-8--7--7-7-7-7--7-7-7-7--7-7-7-7-10-10-10-10-10-|


[Verse] x4

G|---------------------------------------------------------------------------|
D|---------------------------------------------------------------------------|
A|---------------------------------------------------------------------------|
E|-5--5-5-5-5--5-5-5-5--5-5-5-6-6-6-6-6-6------------------------------------|

[Chorus] x2

G|-------------------------------------------------------------------------------------|
D|-------------------------------------------------------------------------------------|
A|-------------------------------------------------------------------------------------|
E|-7--7-7-7-7--7-7-7-7--7-7-7-7-8-8-8-8-8--7--7-7-7-7--7-7-7-7--7-7-7-7-10-10-10-10-10-|


[Last Verse]

G|---------------------------------------------------------------------------|
D|---------------------------------------------------------------------------|
A|---------------------------------------------------------------------------|
E|-5--5-5-5-5--5-5-5-5--5-5-5------------------------------------------------|



That's all.
Enjoy and Rate.
Suggest correction
Give kudos to tab author, rate the tab!
1 2 3 4 5
comments
print report bad tab
guest
You may want to rate the tab now too:
select rating
Wanna post a correction for this tab? Suggest correction