Oops, an error
Loading. Please wait.

The Howl Bass Tab

version 3
version 3

Whole song

  • ver 3 new
    The other two tabs on this site are not in correct... Show more
7 views 7 this week
no commentswrite comment
1 2 3 4 5
3 more votes to show rating
add to favorites
launch autoscroll
font size
0
reset
guitar tuner
Autoscroll
slow
fast
+/-
esc
set tempo
stop
Help us to improve Ultimate-Guitar.com Take our survey!
×
Author
Difficulty
novice
About this tab version
The other two tabs on this site are not in correct format and are also clearly wrong. V1 only got the intro right whereas V2 is a whole different song. Was this info helpful? Yes No
                             SAMHAIN - THE HOWL

Tabbed by: Rottney (reconssuck)
E-mail: reconssuck@hotmail.de

Artist: Samhain
Song: The Howl
Album: Initium (1984)
Bassist: Eerie Von





[Intro] x2

G|----------------|-------------|
D|-12----12-12----|---------10--|
A|----12-------12-|-8-8-8-8-----|
E|----------------|-------------|


[Verse] x8

G|----------------|-------------|
D|-12----12-12----|---------10--|
A|----12-------12-|-8-8-8-8-----|
E|----------------|-------------|

[Chorus]

G|-------------|-------------|-------------|---------|---------------------------|
D|-------------|-------------|-------------|---------|---------------------------|
A|-------------|-------------|-3-3-3-3-3-3-|---------|---------------------------|
E|-4-4-4-4-4-4-|-3-3-3-3-3-3-|-------------|-4-4-4-3-|-0-0-0-0-0-0-0-0-----------|


[Verse] x4

G|----------------|-------------|
D|-12----12-12----|---------10--|
A|----12-------12-|-8-8-8-8-----|
E|----------------|-------------|

[Verse Variation] x4

G|----------------|-----------------|
D|-14----14-14----|-------------12--|
A|----14-------14-|-10-10-10-10-----|
E|----------------|-----------------|

[Verse] x4

G|----------------|-------------|
D|-12----12-12----|---------10--|
A|----12-------12-|-8-8-8-8-----|
E|----------------|-------------|


[Chorus]

G|-------------|-------------|-------------|---------|---------------------------|
D|-------------|-------------|-------------|---------|---------------------------|
A|-------------|-------------|-3-3-3-3-3-3-|---------|---------------------------|
E|-4-4-4-4-4-4-|-3-3-3-3-3-3-|-------------|-4-4-4-3-|-0-0-0-0-0-0-0-0-----------|


[Outro] x10 (on the album version Eerie Von seems to be playing the "3" throughout the whole riff
             this is what the guitar is playing, and how Eerie played it live)

G|---------------|-------------|---------------|-------------|
D|---------------|-------------|---------------|-------------|
A|-3-3-3-3-3-3-3-|-4-4---------|-3-3-3-3-3-3-3-|-6-6---------|
E|---------------|-----4-4-4-4-|---------------|-----6-6-6-6-|

[End]

G|--------|
D|--------|
A|-3------|
E|--------|



That's all 
Enjoy and rate, the song that got me into playing bass.


Suggest correction
Give kudos to tab author, rate the tab!
1 2 3 4 5
comments
print report bad tab
guest
You may want to rate the tab now too:
select rating
Wanna post a correction for this tab? Suggest correction