Oops, an error
Loading. Please wait.

Twist Of Cain Bass Tab

4 views 1 this week
no commentswrite comment
1 2 3 4 5
3 more votes to show rating
add to favorites
launch autoscroll
font size
0
reset
guitar tuner
Autoscroll
slow
fast
+/-
esc
set tempo
stop
Help us to improve Ultimate-Guitar.com Take our survey!
×
Author
Difficulty
novice
About this tab version
This is based on the faster "Final Descent" album version, not the Version that appears on the "Danzig I" album. Was this info helpful? Yes No
                             SAMHAIN - TWIST OF CAIN

Tabbed by: Rottney (reconssuck)
E-mail: reconssuck@hotmail.de

Artist: Samhain
Song: Twist Of Cain
Album: Final Descent (1990)
Bassist: Eerie Von




[Main Riff] x11

G|------------------|------------------|------------------|----------------------|
D|------------------|------------------|------------------|----------------------|
A|----------------7-|----------------7-|----------------7-|-6-6-6-6-6-6-6-6------|
E|-5-5-5--8-8-8-8---|-5-5-5--8-8-8-8---|-5-5-5--8-8-8-8---|----------------------|


[Bridge] x4

G|---------------|-----------------|---------------|-----------------|
D|---------------|-----------------|---------------|-----------------|
A|---------------|-----------------|-6-6-6-6-6-6-6-|-6-6-6-6-6-6-6-6-|
E|-5-5-5-5-5-5-5-|-5-5-5-5-5-5-5-5-|---------------|-----------------|


[Main Riff] x10

G|------------------|------------------|------------------|----------------------|
D|------------------|------------------|------------------|----------------------|
A|----------------7-|----------------7-|----------------7-|-6-6-6-6-6-6-6-6------|
E|-5-5-5--8-8-8-8---|-5-5-5--8-8-8-8---|-5-5-5--8-8-8-8---|----------------------|


[Bridge] x8

G|---------------|-----------------|---------------|-----------------|
D|---------------|-----------------|---------------|-----------------|
A|---------------|-----------------|-6-6-6-6-6-6-6-|-6-6-6-6-6-6-6-6-|
E|-5-5-5-5-5-5-5-|-5-5-5-5-5-5-5-5-|---------------|-----------------|



[Outro]

G|------|------|------|------|-----------|
D|------|------|------|------|-----------|
A|------|------|------|------|-----------|
E|-5----|-5----|-5----|-5----|-5---------|


(after that the main riff of "lords of the left hand" is jammed once before the song finally ends)


That's all
Enjoy and Rate
Suggest correction
Give kudos to tab author, rate the tab!
1 2 3 4 5
comments
print report bad tab
guest
You may want to rate the tab now too:
select rating
Wanna post a correction for this tab? Suggest correction