Oops, an error
Loading. Please wait.

Dull Bass Tab

version 3
version 3

Whole song

562 views 1 this week
no commentswrite comment
1 2 3 4 5
please rate
add to favorites
launch autoscroll
font size
0
reset
guitar tuner
Tab Pro tools
  • play this tab
  • loop segment
  • change instrument
  • show fretboard
  • metronome
×
Best way to learn
"Dull"
Autoscroll
slow
fast
+/-
esc
set tempo
stop
Contributor
Band: samiam
Album: astray
Song: dull

Intro (0.09)
                 X4
G|-------|------------------|
D|-------|------------------| 
A|-77-57-|-9995-55----77-57-|
E|-------|--------5-55------|

Verse (0:22)

G|----------------------------------|
D|----------------------------------| 
A|-99999999--------5555555555555555-|
E|---------55555555-----------------|

G|----------------------------------|
D|----------------------------------| 
A|-----------------5555555555555557-|
E|-2222222200000000-----------------|

G|----------------------------------|
D|----------------------------------| 
A|-99999999--------5555555555555555-|
E|---------55555555-----------------|

G|----------------------------------|
D|----------------------------------| 
A|-----------------5555-555-555-555-|
E|-2222222200000000-----------------|

(0:45)

G|-------------------------------------------------------------------|
D|-------------------------------------------------------------------| 
A|-----------------5--------------------------------9999999-7777777--| x2
E|-5-------------------------------7---------------------------------|

(1:08)

G|------------------|
D|------------------| 
A|-5555444422220000-|
E|------------------|

Chorus

G|----------------------------------|
D|----------------------------------| 
A|-99999999--------5555555555555555-|
E|---------55555555-----------------|

G|----------------------------------|
D|----------------------------------| 
A|-----------------5555555555555555-|
E|-2222222200000000-----------------|

G|----------------------------------|
D|----------------------------------| 
A|-99999999--------5555555555555555-|
E|---------55555555-----------------|

G|----------------------------------|
D|----------------------------------| 
A|-99999999777777775555555555555555-|
E|----------------------------------|

Verse (1:33)

G|----------------------------------|
D|----------------------------------| 
A|-99999999--------5555555555555555-|
E|---------55555555-----------------|

G|----------------------------------|
D|----------------------------------| 
A|-----------------5555555555555557-|
E|-2222222200000000-----------------|

G|----------------------------------|
D|----------------------------------| 
A|-99999999--------5555555555555555-|
E|---------55555555-----------------|

G|----------------------------------|
D|----------------------------------| 
A|-----------------5555-555-555-555-|
E|-2222222200000000-----------------|

G|-------------------------------------------------------------------|
D|-------------------------------------------------------------------| 
A|-----------------5--------------------------------9999999-7777777--| x2
E|-5-------------------------------7---------------------------------|

(2:19)

G|------------------|
D|------------------| 
A|-5555444422220000-|
E|------------------|

Chorus (2:22)

G|----------------------------------|
D|----------------------------------| 
A|-99999999--------5555555555555555-|
E|---------55555555-----------------|

G|----------------------------------|
D|----------------------------------| 
A|-----------------5555555555555555-|
E|-2222222200000000-----------------|

G|----------------------------------|
D|----------------------------------| 
A|-99999999--------5555555555555555-|
E|---------55555555-----------------|

G|----------------------------------|
D|----------------------------------| 
A|-----------------5555555555555555-|
E|-2222222200000000-----------------|

Bridge: (2:45)

G|----------------------------------|
D|----------------------------------| 
A|-9~--------------5~---------------| x5
E|---------5~-----------------------|

G|----------------------------------|
D|----------------------------------| 
A|-99999999--------5555555555555555-| x4
E|---------55555555-----------------|

Pause

Chorus 3:36

G|----------------------------------|
D|----------------------------------| 
A|-99999999--------5555555555555555-|
E|---------55555555-----------------|

G|----------------------------------|
D|----------------------------------| 
A|-----------------5555555555555555-|
E|-2222222200000000-----------------|

G|----------------------------------|
D|----------------------------------| 
A|-99999999--------5555555555555555-|
E|---------55555555-----------------|

G|----------------------------------|
D|----------------------------------| 
A|-----------------5555555555555555-|
E|-2222222200000000-----------------|

Ending (3:59)

G|----------------------------------|
D|----------------------------------| 
A|-99999999777777775-5555555-555555-| x2
E|----------------------------------|

4:11

G|----------------------------------|
D|----------------------------------| 
A|-99999999-77777775555444422220000-|
E|----------------------------------|

G|----------------------------------|
D|----------------------------------| 
A|-99999999-77777775~---------------|
E|----------------------------------|

comments
We did not receive enough feedback on this tab! Please rate:
print report bad tab
1 2 3 4 5
I want to post or [tab]
guest
You may want to rate the tab now too:
select rating
Please do not post tabs as comments. Select "correction" instead!