Oops, an error
Loading. Please wait.

How Long Bass Tab

650 views 1 this week
no commentswrite comment
1 2 3 4 5
please rate
add to favorites
launch autoscroll
font size
0
reset
guitar tuner
Autoscroll
slow
fast
+/-
esc
set tempo
stop
Help us to improve Ultimate-Guitar.com Take our survey!
×
Author
Samiam – How Long

I know this is listed as a solo but it's now the full song

> = play 8 times
* = play 5 times
The notes are 11’s 12’s etc, not 1’s and 2’s

Intro:

G|-11*-14-12-11-----11-12-11--------11-12>-|
D|--------------14*----------12*-14--------| 
A|-----------------------------------------| x4
E|-----------------------------------------|

Bridge 1: (0:31)

             X3
G|----|--------------|
D|-77-|--------555/7-| 
A|----|5555-55-------| 
E|----|--------------|

Or it may be easier to play it:

                    X3
G|------|------------------------|
D|------|------------------------| 
A|-1212-|--------------101010/12-| 
E|------|10101010-1010-----------|

Then:
Intro x2 (0:39)
Bridge 1 (0:54)

Chorus: (1:03)

G|-----------------|
D|-5>>----5>-9>-7>-| 
A|----5>-----------| 
E|------5>---------|

Bridge 2 (1:19)

G|--------------------|
D|-12>-10>-9>---------| 
A|------------7-9-10>-| x4
E|--------------------|

Then:
Bridge 1 (1:50)
Chorus x2 (1:58)

Solo (2:30):

G|------------9-11-1212121212121212-|
D|-12>-10>-9>-----------------------| 
A|----------------------------------| x2
E|----------------------------------|

G|----11/12\11----14-12-11-12-|
D|-12----------12-------------| 
A|----------------------------| 
E|----------------------------|

G|----11/12\11---------11----|
D|-12----------12-9-12----12-| 
A|---------------------------| 
E|---------------------------|

G|----11/12\11----14-12----11-12-12-12-12-12-14-12-11-|
D|-12----------12-------14----------------------------| 
A|----------------------------------------------------| 
E|----------------------------------------------------|

G|----11/12\11----14-12-11-12-|
D|-12----------12-------------| 
A|----------------------------| 
E|----------------------------|

G|----11/12\11---------11----|
D|-12----------12-9-12----12-| 
A|---------------------------| 
E|---------------------------|

G|----11/12\11----14-12----11-12>-|
D|-12----------12-------14--------| 
A|--------------------------------| 
E|--------------------------------|

G|----11/12\11----14-12-11-12-|
D|-12----------12-------------| 
A|----------------------------| 
E|----------------------------|

G|----11/12\11---------11----|
D|-12----------12-9-12----12-| 
A|---------------------------| 
E|---------------------------|

G|----11/12\11----14-12----11-1211111211111211111211111211-|
D|-12----------12-------14---------------------------------| 
A|---------------------------------------------------------| 
E|---------------------------------------------------------|

G|----11/12\11----14-12-11-12-|
D|-12----------12-------------| 
A|----------------------------| 
E|----------------------------|

G|----11/12\11---------11----|
D|-12----------12-9-12----12-| 
A|---------------------------| 
E|---------------------------|

G|----11/12\11----14-12----11-12111112111112111112111114141211-|
D|-12----------12-------14-------------------------------------| 
A|-------------------------------------------------------------| 
E|-------------------------------------------------------------|

Then:
Chorus (3:18)

End: (3:33)

G|-----------------|
D|-5>>----5>-9>-7~-| 
A|----5>0>---------| 
E|-----------------|

Not that sure with the chorus but I think most of the tab sounds right.
Please rate
Suggest correction
Give kudos to tab author, rate the tab!
1 2 3 4 5
comments
print report bad tab
guest
You may want to rate the tab now too:
select rating
Wanna post a correction for this tab? Suggest correction