Oops, an error
Loading. Please wait.

Bad Reputation tab

61 views 1 this week
no commentswrite comment
1 2 3 4 5
x 3
add to favorites
×
Save as Personal and add changes to this tab that will be seen only by you. Learn more ›
×
You can save this tab as Personal to edit and correct it or add notes. All changes will be seen only by you. Learn more »
launch autoscroll
font size
0
reset
how to read this tab
guitar tuner
edit
Autoscroll
slow
fast
+/-
esc
set tempo
stop
Author
[Intro]                  
e|--x---x---x------------------------------------|---------------------------------|
B|--x---x---x------------------------------------|---------------------------------|
G|--x---x---x-------------------------4---4---4--|---------------------4---4---4---|
D|--x---x---x---------------------2---4---4---4--|-----------------2---4---4---4---|
A|--x---x---x---7\2-----------2-------2---2---2--|-2-----------2-------2---2---2---|
E|--x---x---x---9\0---2---4----------------------|-0---2---4-----------------------|

e|---------------------------------|--------------0---|
B|---------------------------------|=-------------0---|
G|----------------------4---4---4--|--4---2-------1---|
D|------------------2---2---4---4--|--4---2---2-------|
A|--2-----------2-------2---2---2--|--2---0---2-------|
E|--0---2---4----------------------|----------0-------|

[Verse 1]
e|----------5---------------|----------5---------------|--------------------------|-------------------|
B|--------------------------|--------------------------|--2---2---2---------------|-------------------|
G|----------7---8---8---8---|----------7---8---8---8---|--2---2---2---4---4---4---|--4---4---6---6----|
D|--7---7---7---9---9---9---|--7---7---7---9---9---9---|--2---2---2---4---4---4---|--4---4---6---6----|
A|--7---7---7---9---9---9---|--7---7---7---9---9---9---|--0---0---0---4---4---4---|--2---2---4---4----|
E|--0---0-------7---7---7---|--0---0-------7---7---7---|--------------2---2---2---|-------------------|
         Well she had a bad reputation  So mother put you on probation  Now ain't it funny how the story goes

e|----------5---------------|----------5---------------|--------------------------|-------------------|
B|--------------------------|--------------------------|--2---2---2---------------|-------------------|
G|----------7---8---8---8---|----------7---8---8---8---|--2---2---2---4---4---4---|--4---4---4--------|
D|--7---7---7---9---9---9---|--7---7---7---9---9---9---|--2---2---2---4---4---4---|--4---4---4--------|
A|--7---7---7---9---9---9---|--7---7---7---9---9---9---|--0---0---0---4---4---4---|--2---2---2---0----|
E|--0---0-------7---7---7---|--0---0-------7---7---7---|--------------2---2---2---|-------------------|
         Well, seems like every boy you meet Just tries to get you in the back seat If you been there once, 
your gonna do it again That's what they say when you
    
e|---------------------------------|---------------------------------|
B|---------------------------------|---------------------------------|
G|----------------------4---4---4--|---------------------4---4---4---|
D|------------------2---2---4---4--|-----------------2---4---4---4---|
A|--2-----------2-------2---2---2--|-2-----------2-------2---2---2---|
E|--0---2---4----------------------|-0---2---4-----------------------|
You've got a bad reputation  A bad reputation

e|--------------------------|------------------|-----------------------------------|
B|--------------------------|------------------|-------------------------------2---|
G|-----------------2---4----|--------------4---|---4---4---4---4---4---4---4---2---|
D|-------------2-------4----|------4---6-------|---4---4---4---4---4---4---4---2---|
A|--0---2---4----------4----|--7---------------|---2---2---2---2---2---2---2---0---|
E|---------------------2----|------------------|-----------------------------------|
But what a sensation Ooh, you're such a temptation

[Verse 2]
Sometimes sneakin' out the window
Well, just as sure as the wind blows
Your in trouble when they find you out
With such a small circle of friends 
The train is never gonna end
And some girls like it, yeah but, some don't
You, you, you got a bad reputation 
A bad reputation
Aw, but what a sensation
Aw, you're such a temptation

[Bridge]
e|-------3---------------|-----------5------------------|
B|-------0---x---7---7---|---2---2---5---2---2----------|
G|-------0---x---7---7---|---2---2---2---2---2----------| (x3)
D|-------0---x---7---7---|---2---2---2---2---2----------|
A|-------x---x---5---5---|---0---0---0---0---0----------|
E|---3---3---x-----------|----------------------0---2---|

You're the kind that wonders if love was made to last
Or if marriage is a thing of the past
Well, anyway you want it baby, that's the way its gonna be, yeah
'Cause if you're good enough for you, you're good enough for me, yeah

e|---------------------------------|---------------------------------|---------|
B|---------------------------------|---------------------------------|--4---2--|
G|----------------------4---4---4--|---------------------4---4---4---|--4---2--|
D|------------------2---2---4---4--|-----------------2---4---4---4---|--4---2--|
A|--2-----------2-------2---2---2--|-2-----------2-------2---2---2---|--2---0--|
E|--0---2---4----------------------|-0---2---4-----------------------|---------|

[Verse 3]
When she had a bad reputation
And now its a touchy situation
Well, just try to change in this small town
Where everybody knows your name
Expecting you to stay the same
Either put it up or they'll put you out
That's what they do when

[Chorus 2]
You got a bad reputation 
A bad reputation 
But what a sensation
Ooh, you're such a temptation 

[Outro]
e|---------------------------------|---------------------------------|
B|---------------------------------|---------------------------------|
G|----------------------4---4---4--|---------------------4---4---4---|
D|------------------2---2---4---4--|-----------------2---4---4---4---|(x4)
A|--2-----------2-------2---2---2--|-2-----------2-------2---2---2---|
E|--0---2---4----------------------|-0---2---4-----------------------|

You got a bad reputation
You know it's alright, it's alright with me
I'll take your bad reputation
You and your bad reputation
Whoo! C'mon, baby, yeah
Alright, hey, yeah

e|--------------|
B|--------------|
G|--4---2-------|
D|--4---2---2---|
A|--2---0---2---|
E|----------0---|


************************************

| x  Dead note
| \  Slide down


************************************
Suggest correction
Creating personal tab
Creating personal tab
You can edit any tab online and save it as your Personal.

You can edit, replace or remove any tab part or add personal notes – all changes will be seen only by you.

Personal tabs can be accessed anytime from any device, even offline.
Learn more »
Give kudos to tab author, rate the tab!
1 2 3 4 5
comments
print report bad tab
guest
You may want to rate the tab now too:
select rating
Wanna post a correction for this tab? Suggest correction