Oops, an error
Loading. Please wait.

I Cant Drive 55 Tab

version 1
version 1

Whole song

Interactive

28,395 views 27 this week
6 commentsread comments
1 2 3 4 5
excellent!
x 12
add to favorites
launch autoscroll
font size
0
reset
how to read this tab
guitar tuner
Tab Pro tools
  • play this tab
  • loop segment
  • change instrument
  • show fretboard
  • metronome
×
Best way to learn
"I Cant Drive 55"
Autoscroll
slow
fast
+/-
esc
set tempo
stop
I Can’t Drive 55
Sammy Hagar

Standard Tuning

Intro:
e|-------------------------------------------------------------|
B|-------------------------------------------------------------|
G|---1-1-1-1-2-2-2-2-1-1-------1-1---2-2-2-2-1-1-----------1---|
D|---2-2-2-2-2-2-2-2-2-2---5-7-2-2---2-2-2-2-2-2---5-7-5-7-2---|
A|---2-2-2-2-0-0-0-0-2-2---5-7-2-2---0-0-0-0-2-2---5-7-5-7-2---|
E|---0-0-0-0---------0-0---3-5-0-0-----------0-0---3-5-3-5-0---|

Verse 1: ---------- x2 ------------|--------- 1st time---|
e|---------------------------------|--------------------|--------------|-------------|
B|---------------------------------|--------------------|--------------|-------------|
G|---------------------------------|---1--------------1-|-1----------1-|------2--4---|
D|--222-222-222-222-222-222-222-222|---2-5--7-5-7-5-7-2-|-2-5--7-5-7-2-|---5--2--4---|
A|--222-222-222-222-222-222-222-222|---2-5--7-5-7-5-7-2-|-2-5--7-5-7-2-|---5--0--2---|
E|--000-000-000-000-000-000-000-000|---0-3--5-3-5-3-5-0-|-0-3--5-3-5-0-|---3---------|
    |------------P.M.-------------|

Chorus:
e|-----------------------------------------------------------------------------|
B|-----------------------------------------------------------------------------|
G|----------------------1xxxx1xxxx1xxxx1---------------------------------------|
D|--7xxxx7xxxx7xxxx7xxxx2xxxx2xxxx2xxxx2xxxx7xxxx7xxxx7xxxx7xxxx9xxxx9xxxx9/---|
A|--7xxxx7xxxx7xxxx7xxxx2xxxx2xxxx2xxxx2xxxx7xxxx7xxxx7xxxx7xxxx9xxxx9xxxx9/---|
E|--5xxxx5xxxx5xxxx5xxxx0xxxx0xxxx0xxxx0xxxx5xxxx5xxxx5xxxx5xxxx7xxxx7xxxx7/---|

e|-------------------------------------------------------------|
B|-------------------------------------------------------------|
G|---1-1-1-1-2-2-2-2-1-1-------1-1---2-2-2-2-1-1-----------1---|
D|---2-2-2-2-2-2-2-2-2-2---5-7-2-2---2-2-2-2-2-2---5-7-5-7-2---|
A|---2-2-2-2-0-0-0-0-2-2---5-7-2-2---0-0-0-0-2-2---5-7-5-7-2---|
E|---0-0-0-0---------0-0---3-5-0-0-----------0-0---3-5-3-5-0---|

Verse 2: ---------- x2 ------------|--------- 1st time---|
e|---------------------------------|--------------------|--------------|-------------|
B|---------------------------------|--------------------|--------------|-------------|
G|---------------------------------|---1--------------1-|-1----------1-|------2--4---|
D|--222-222-222-222-222-222-222-222|---2-5--7-5-7-5-7-2-|-2-5--7-5-7-2-|---5--2--4---|
A|--222-222-222-222-222-222-222-222|---2-5--7-5-7-5-7-2-|-2-5--7-5-7-2-|---5--0--2---|
E|--000-000-000-000-000-000-000-000|---0-3--5-3-5-3-5-0-|-0-3--5-3-5-0-|---3---------|
    |------------P.M.-------------|

Chorus:
e|-----------------------------------------------------------------------------|
B|-----------------------------------------------------------------------------|
G|----------------------1xxxx1xxxx1xxxx1---------------------------------------|
D|--7xxxx7xxxx7xxxx7xxxx2xxxx2xxxx2xxxx2xxxx7xxxx7xxxx7xxxx7xxxx9xxxx9xxxx9/---|
A|--7xxxx7xxxx7xxxx7xxxx2xxxx2xxxx2xxxx2xxxx7xxxx7xxxx7xxxx7xxxx9xxxx9xxxx9/---|
E|--5xxxx5xxxx5xxxx5xxxx0xxxx0xxxx0xxxx0xxxx5xxxx5xxxx5xxxx5xxxx7xxxx7xxxx7/---|

                                                |----------- x 2 ------------|
e|----------------------------------------------|----------------------------|
B|----------------------------------------------|----------------------------|
G|--1-2-2-2-2--1-1---7---1---7---1---7---1---7--|9-9-9-9-7-9-12--9-9-9-9-7-9-|
D|--2-2-2-2-2--2-2---7---2---7---2---7---2---7--|9-9-9-9-7-9-12--9-9-9-9-7-9-|
A|--2-0-0-0-0--2-2---5---2---5---2---5---2---5--|7-7-7-7-5-7-10--7-7-7-7-5-7-|
E|--0----------0-0-------0-------0-------0------|----------------------------|


 
1st solo:
e|---------------------------------------------------------------------------|
B|----------------------8---------15b17-17~~~17~~~------15----15----*15/13~~~|
G|-7--5/9-9-9-9~--5/9-9---9---7-------------------14/16----16----*16/14~~~~--|
D|-7--------------------------7----------------------------------------------|
A|-5--------------------------5----------------------------------------------|
E|---------------------------------------------------------------------------|
* - Slide both together

e|--------------------------------2---|
B|--------------------------------3---|
G|--------------------------------2---|
D|-------2------------2-------2---0---|
A|-------2------------2-------2---0---|
E|---3b4----3b4-0—3b4----3b4--0-------|

X2
e|-----------------------------------|
B|-----------------------------------|
G|---9--9-9-9-7-9-12--9--9-9-9-7-9---|
D|---9--9-9-9-7-9-12--9--9-9-9-7-9---|
A|---7--7-7-7-5-7-10--7--7-7-9-5-7---|
E|-----------------------------------|

Solo:
e|--------------------------------------------------------------------------|
B|---14b15--14~~~14b15--14~~~14-(14)-12--------------15----15----*17~~~~~~~-|
G|---14b16--14~~~14b16--14~~~14-(14)-12-14-12---7/16----16----16------------|
D|--------------------------------------------------------------------------|
A|--------------------------------------------------------------------------|
E|--------------------------------------------------------------------------|
* - A whammy bar is used on this note but can also be vibratoed.

e|----------------------------------------------|----------------------------|
B|----------------------------------------------|----------------------------|
G|--1-2-2-2-2--1-1---7---1---7---1---7---1---7--|9-9-9-9-7-9-12--9-9-9-9-7-9-|
D|--2-2-2-2-2--2-2---7---2---7---2---7---2---7--|9-9-9-9-7-9-12--9-9-9-9-7-9-|
A|--2-0-0-0-0--2-2---5---2---5---2---5---2---5--|7-7-7-7-5-7-10--7-7-7-7-5-7-|
E|--0----------0-0-------0-------0-------0------|----------------------------|

Verse 3:----------- x2 ------------|--------- 1st time---|
e|---------------------------------|--------------------|--------------|-------------|
B|---------------------------------|--------------------|--------------|-------------|
G|---------------------------------|---1--------------1-|-1----------1-|------2--4---|
D|--222-222-222-222-222-222-222-222|---2-5--7-5-7-5-7-2-|-2-5--7-5-7-2-|---5--2--4---|
A|--222-222-222-222-222-222-222-222|---2-5--7-5-7-5-7-2-|-2-5--7-5-7-2-|---5--0--2---|
E|--000-000-000-000-000-000-000-000|---0-3--5-3-5-3-5-0-|-0-3--5-3-5-0-|---3---------|
    |------------P.M.-------------|

Chorus:
e|-----------------------------------------------------------------------------|
B|-----------------------------------------------------------------------------|
G|----------------------1xxxx1xxxx1xxxx1---------------------------------------|
D|--7xxxx7xxxx7xxxx7xxxx2xxxx2xxxx2xxxx2xxxx7xxxx7xxxx7xxxx7xxxx9xxxx9xxxx9/---|
A|--7xxxx7xxxx7xxxx7xxxx2xxxx2xxxx2xxxx2xxxx7xxxx7xxxx7xxxx7xxxx9xxxx9xxxx9/---|
E|--5xxxx5xxxx5xxxx5xxxx0xxxx0xxxx0xxxx0xxxx5xxxx5xxxx5xxxx5xxxx7xxxx7xxxx7/---|

 
Until fade
e|---------------------------------------------------------|
B|---------------------------------------------------------|
G|---1-1-1--2-2-2--1-1-------1-1---2-2-2-1-1-----------1---|
D|---2-2-2--2-2-2--2-2---5-7-2-2---2-2-2-2-2---5-7-5-7-2---|
A|---2-2-2--0-0-0--2-2---5-7-2-2---0-0-0-2-2---5-7-5-7-2---|
E|---0-0-0---------0-0---3-5-0-0---------0-0---3-5-3-5-0---|
comments
print report bad tab
6 comments total. Showing first comments.
0 reply
oraclez69 wrote on September 11 2006, 06:12 pm

I think it's missing an A chord in there somewhere

0 reply
AcdcTXfan wrote on November 28 2007, 11:20 pm

excellent
i think the high E sounds better in the intro though
but 5 starts

0 reply
AcdcTXfan wrote on November 28 2007, 11:20 pm

5 STARS..... my bad

I want to post or [tab]
guest
You may want to rate the tab now too:
select rating
Please do not post tabs as comments. Select "correction" instead!