Oops, an error
Loading. Please wait.

I Dont Need Love Bass Tab

version 2
version 2

Whole song

Interactive

251 views 3 this week
no commentswrite comment
1 2 3 4 5
please rate
add to favorites
launch autoscroll
font size
0
reset
guitar tuner
Autoscroll
slow
fast
+/-
esc
set tempo
stop
Help us to improve Ultimate-Guitar.com Take our survey!
×
Author
                             I DON'T NEED LOVE - Sammy Hagar

Tabbed By: DanO6546
e-mail: danimalsports@gmail.com

The quarter note parts during the riffs might actually be eighth notes.

Intro
G||--------|--------|--------|--------|--------|--------|--------|--------|
D||--------|--------|--------|--------|--------|--------|--------|--------|
A||--------|--------|--------|--------|--------|--------|77777777|77777777|
E||0-------|--------|--------|--------|0-------|--------|--------|--------|

Riff 1
|----------------|----------------|----------------|----------------|
|----------------|----------------|----------------|----------------|
|----------------|------------5---|7---7---7---7---|7---7---7---7---|
|0---0---0---0---|0---0---0-------|----------------|----------------|

|----------------|----------------|----------------|----------------|
|----------------|----------------|----------------|----------------|
|----------------|------------5---|7---7---7---7---|7---5-------5---|
|0---0---0---0---|0---0---0-------|----------------|--------7-------|

Verse
|----------------|----------------|----------------|----------------|
|----------------|----------------|----------------|------------5p0-|    x4
|----------------|----------------|----------------|--------5p0-----|
|0-0-0-0-0-0-0-0-|0-0-0-0-0-0-0-0-|0-0-0-0-0-0-0-0-|5p0-7p0---------|

Chorus
|----------------|----------------|----------------|----------------|
|----------------|----------------|----------------|----------------|
|3-----------3---|5-----------5---|7---7---7---7---|7---7---5---0---|
|-----3--3-------|-----5--5-------|----------------|----------------|


|----------------|----------------|----------------|----------------|
|----------------|----------------|----------------|----------------|
|5-----------5---|----------------|7---7---7---7---|7---7---5---0---|
|-----5--5-------|5----0--0---5---|----------------|----------------|


|----------------|----------------|----------------|----------------|
|----------------|----------------|----------------|----------------|
|3-----------3---|5-----------5---|7---7---7---7---|7---7---5---0---|
|-----3--3-------|-----5--5-------|----------------|----------------|


|----------------|----------------|----------------|----------------|
|----------------|----------------|----------------|----------------|
|5-----------5---|----------------|3-3-3-3-3-3-3-3-|5-5-5-5-5-5-5-5-|
|-----5--5-------|5----0--0---5---|----------------|----------------|

Riff 2
|----------------|----------------|----------------|----------------|
|----------------|----------------|----------------|----------------|
|----------------|------------5---|7---7---7---7---|7---7---7---7---|
|0---0---0---0---|0---0---0-------|----------------|----------------|

|----------------|----------------|----------------|----------------|
|----------------|----------------|----------------|----------------|
|----------------|----------------|3---3-----------|5--5------------|
|0---0---0---0---|0---0---0---0---|----------------|----------------|

Verse
Chorus

Solo
|----------------|-------|----------------|-------|
|----------------|-------|----------------|-------|
|7-7-7-7-7\------|-------|----------------|-------|
|----------------|-------|0-0-0-0-0\------|-------|

|----------------|-------|----------------|-------|
|----------------|-------|----------------|-------|
|7-7-7-7-7\------|-------|----------------|-------|
|----------------|-------|0-0-0-0-0\------|-------|

|----------------|-------|-------|-------|
|----------------|-------|-------|-------|
|7------7--------|-------|-------|-------|
|----------------|-------|-------|-------|

Intro
Verse (only half, w/o the riff)
Chorus - twice, no 8th note part on end of first time

Riff 3
|----------------|----------------|----------------|----------------|
|----------------|----------------|----------------|----------------| x3
|----------------|------------5---|7---7---7---7---|7---7---7---7---|
|0---0---0---0---|0---0---0-------|----------------|----------------|

|----------------|----------------|----------------|----------------|
|----------------|----------------|----------------|----------------|
|----------------|------------5---|7---7---7---7---|2p0-------------|
|0---0---0---0---|0---0---0-------|----------------|----3---0-------|
Suggest correction
Give kudos to tab author, rate the tab!
1 2 3 4 5
comments
print report bad tab
guest
You may want to rate the tab now too:
select rating
Please do not post tabs as comments. Select "correction" instead!