Oops, an error
Loading. Please wait.

Be Bass Tab

48 views 1 this week
no commentswrite comment
1 2 3 4 5
please rate
add to favorites
launch autoscroll
font size
0
reset
guitar tuner
Autoscroll
slow
fast
+/-
esc
set tempo
stop
Help us to improve Ultimate-Guitar.com Take our survey!
×
Difficulty
novice
Intro & Verse:
(Dropped D)
D-0-0-6-5-3-0-3-5--5------------|
A----5--------------------------|
D-------------------------------|
G-------------------------------|

Chorus:
D-0-3-0-5---6-5-----------------|
A--------5-0--------------------|
D-------------------------------|
G-------------------------------|

That's quite it.
Suggest correction
Give kudos to tab author, rate the tab!
1 2 3 4 5
comments
print report bad tab
guest
You may want to rate the tab now too:
select rating
Wanna post a correction for this tab? Suggest correction