Oops, an error
Loading. Please wait.

Er Zit Meer In Een Liedje chords

649 views 9 this week
no commentswrite comment
1 2 3 4 5
2 more votes to show rating
add to favorites
×
Save as Personal and add changes to this tab that will be seen only by you. Learn more ›
×
You can save this tab as Personal to edit and correct it or add notes. All changes will be seen only by you. Learn more »
launch autoscroll
font size
0
reset
transpose
0
reset
display chords
guitar tuner
edit
Autoscroll
slow
fast
+/-
esc
set tempo
stop
Strumming
There is no strumming pattern for this song yet. and get +5 IQ
[Verse]

N.C.
Je kunt een liedje heel eenvoudig zingen

  N.C.
e|------------|------------|
B|------------|------------|
G|------------|------------|
D|------------|-------10---|
A|------------|------------|
E|------------|-----8----8-|
alleen maar met je stem en verder niets

  N.C.
e|---------|------------|
B|---------|------------|
G|---------|------------|
D|---------|-7---7----7-|
A|-7-7---7-|------------|
E|---------|---5--------|
je kunt er ook iets anders bij verzinnen
  
  N.C.
e|------------------|-------------|
B|------------------|-------------|
G|------------------|-------------|
D|------------------|-------------|
A|-8--8--------10---|10--10-12-10-|
E|------10--10------|-------------|
zo hoor je nu bijvoorbeeld een bassist

  N.C.
e|-------------|-------------|
B|-------------|-------------|
G|-----5---5---|-------------|
D|-------------|-----5---5---|
A|-3-3---3---3-|-------------|
E|-------------|-3-3---3---3-|
een drummer mag er ook al bij gaan horen

  N.C.
e|-----------------|------------|
B|-----------------|------------|
G|-----------------|------------|
D|-----------------|-------10---|
A|-5-5--5----------|------------|
E|--------6-6--6-8-|-8----8----8-|
dan voelt die bas zich niet meer zo alleen

  N.C.
e|---------|------------|
B|---------|------------|
G|---------|------------|
D|---------|-7---7----7-|
A|-7-7---7-|------------|
E|---------|---5--------|
het liedje is nu nog maar net begonnen

  N.C.
e|------------------|-------------|
B|------------------|-------------|
G|------------------|-------------|
D|------------------|-------------|
A|-8--8--------10---|10--10-12-10-|
E|------10--10------|-------------|
of er staat al een orkestje om ons heen

   C                           G
we missen nog een man aan de piano 
    Dm            Bb           C
die zit geloof ik nog op de toilet
     Em                       Am
Daar is hij al nu kunnen we beginnen 
    F                                  G
hé, kijk daar heb je Joop met zijn trompet


[Chorus]

       C                         F     G
Er zit meer in een liedje dan je denkt
       C                         F     G
Er zit meer in een liedje dan je denkt
    Dm                             C          G
Een drumstel, een trompet en een piano en een stem
       C           G             C
Er zit meer in een liedje dan je denkt

       C                         F     G
Er zit meer in een liedje dan je denkt
       C                         F     G
Er zit meer in een liedje dan je denkt
    Dm                             C          G
Een drumstel, een trompet en een piano en een stem
       C           G             C
Er zit meer in een liedje dan je denkt


[Verse]

   C                            G
De radio speelt heel veel mooie liedjes
     Dm              Bb               C
Maar meestal heeft alleen de stem een naam
    Em                             Am
Daarom zijn heel veel mensen al vergeten
       F                         G
Dat er ook nog muzikanten achter staan

    C                              G
Bij ons speelt Chocomoes op de trompetten
   Dm           Bb             C
De burgemeester speelt op de gitaar
  Em                             Am         
Meneer Spaghetti die slaat op de trommels
   F                           G
En Gert en ik wij zingen met elkaar


[Chorus]

       C                         F     G
Er zit meer in een liedje dan je denkt
       C                         F     G
Er zit meer in een liedje dan je denkt
    Dm                             C          G
Een drumstel, een trompet en een piano en een stem
       C           G             C
Er zit meer in een liedje dan je denkt

       C                         F     G
Er zit meer in een liedje dan je denkt
       C                         F     G
Er zit meer in een liedje dan je denkt
    Dm                             C          G
Een drumstel, een trompet en een piano en een stem
       C           G             C
Er zit meer in een liedje dan je denkt


[Bridge]

   Am                       Dm
Nu spelen alle instrumenten samen 
     Am                              Dm
Maar soms dan doet er één zijn eigen zin
    Am                        Dm
Dat noemen ze een solo in een liedje
   C                          G
En luister goed de solo die begint...NU!


[Solo]

  N.c
e|---------|
B|---------|
G|----9-10-|
D|---------|
A|---------|
E|---------|

  C                  F     G
e|------------------|--------------|
B|---13-13-13-12-13-|--------------|
G|12----------------|12~------9-10-|
D|------------------|--------------|
A|------------------|--------------|
E|------------------|--------------|

  C                  F     G
e|------------------|---------------|
B|---13-13-13-15-13-|---------------|
G|12----------------|12~------10-12-|
D|------------------|---------------|
A|------------------|---------------|
E|------------------|---------------|

  Dm                 C        G
e|------------------|-------------------|
B|10--------------10|13----13-15~--13-15|
G|---12-10-10--12---|---14--------------|
D|------------------|-------------------|
A|------------------|-------------------|
E|------------------|-------------------|

  C           G         C
e|------------15s17-17-|15~---|
B|15b17-15-13----------|------|
G|---------------------|------|
D|---------------------|------|
A|---------------------|------|
E|---------------------|------|


[Chorus]

       C                         F     G
Er zit meer in een liedje dan je denkt
       C                         F     G
Er zit meer in een liedje dan je denkt
    Dm                             C          G
Een drumstel, een trompet en een piano en een stem
       C           G             C
Er zit meer in een liedje dan je denkt

       C                         F     G
Er zit meer in een liedje dan je denkt
       C                         F     G
Er zit meer in een liedje dan je denkt
    Dm                             C          G
Een drumstel, een trompet en een piano en een stem
       C           G             C
Er zit meer in een liedje dan je denkt



************************************

| b  Bend
| ~  Vibrato
| s  slide

************************************
Suggest correction
Creating personal tab
Creating personal tab
You can edit any tab online and save it as your Personal.

You can edit, replace or remove any tab part or add personal notes – all changes will be seen only by you.

Personal tabs can be accessed anytime from any device, even offline.
Learn more »
Give kudos to tab author, rate the tab!
1 2 3 4 5
comments
print report bad tab
guest
You may want to rate the tab now too:
select rating
Wanna post a correction for this tab? Suggest correction