Oops, an error
Loading. Please wait.

Paris Sous La Pluie Tab

7 views 1 this week
no commentswrite comment
1 2 3 4 5
2 more votes to show rating
add to favorites
launch autoscroll
font size
0
reset
how to read this tab
guitar tuner
Autoscroll
slow
fast
+/-
esc
set tempo
stop
Help us to improve Ultimate-Guitar.com Take our survey!
×
Author
Difficulty
intermediate
[Solo]
(starts at 1:09)

e|------------------------------------------------------------------------|
B|-------------5-----5-----5-7b8-7pbr8-6---5h6p5-4-5-6-5-4-5-6-5h6p5-4-5--|
G|--5b6------5-----5-----5------------------------------------------------|
D|------7--7-----7-----7--------------------------------------------------|
A|------------------------------------------------------------------------|
E|------------------------------------------------------------------------|

e|---------------7-10-8h10p8---7---7-------|
B|-----------5-9-------------9---9---9-10--|
G|-4-7-5---5-------------------------------|
D|-------4---------------------------------|
A|-----------------------------------------|
E|-----------------------------------------|

e|-5-4-3-2-1-0------------------------------------------------------------|
B|-------------4-3-2-1-0-------------1-0-----------------------------4-7--|
G|-----------------------3-2-1-0-1-0-----2-0-------------2-4-5-4-3-4------|
D|-------------------------------------------2-0-----1-4------------------|
A|-----------------------------------------------1-2----------------------|
E|------------------------------------------------------------------------|

e|-5-7-8-5-7-6-5-4---------------------------------|
B|-----------------6-5----------------5-7-8-5-6-7~-|
G|---------------------7-5-4--------5--------------|
D|---------------------------8--7-8----------------|
A|-------------------------------------------------|
E|-------------------------------------------------|

e|-----------8-12-17-12-15-12-15-13-10----------------------------7-10-7--|
B|--------10---------------------------10-----------------------9---------|
G|------9---------------------------------10----10~--9h10p9-8-9-----------|
D|-7-10--------------------------------------12---------------------------|
A|------------------------------------------------------------------------|
E|------------------------------------------------------------------------|

e|-----------------------------------------------------8-12-15-12-13-14-12--------|
B|-9------------------------------------------------10---------------------13-----|
G|---10-7----------------7-10-8-9-8-7-------------9---------------------------14--|
D|--------9-9p8p7p6--6-9--------------10-9-8-7-10---------------------------------|
A|--------------------------------------------------------------------------------|
E|--------------------------------------------------------------------------------|

e|-8---10--8--12--12--10--8---11--11--11--10/11--10/11--7--7/8---8---8---7--10-----8---|
B|-10—-12—10--13--13--12--10--12--12--12--11/12--11/12--9--9/10--10--10--9--12-----10--|
G|-------------------------------------------------------------------------------------|
D|-------------------------------------------------------------------------------------|
A|-------------------------------------------------------------------------------------|
E|-------------------------------------------------------------------------------------|

e|-------------1-5--------------------------8-12-10-8-10--|
B|-----------3-----6---------------------10---------------|
G|---------2---------7-----------------9------------------|
D|-----0-3-------------7----------7-10--------------------|
A|---2--------------------------7-------------------------|
E|-1---------------------5~--/8---------------------------|

e|-10-8p7-------------------------------6-5----|
B|--------9-------------------------5-8-----6--|
G|----------10-7------------------6------------|
D|---------------8-9-6-7---5-6-7---------------|
A|---------------------------------------------|
E|---------------------------------------------|

e|---------------10-10-9-12-11-10-9-8-7-10-8-------------------8-12~----|
B|------------10-----------------------------10-------------10----------|
G|-------7-10-----------------------------------9---------9-------------|
D|-----7------------------------------------------10-7-10---------------|
A|-5/8------------------------------------------------------------------|
E|------------------------------------------------------------------==--|

e|-8-7-8-7-8-7-8-7-8-7-8-7-7-7--10--10p9p8p7-------------------|
B|-------------------------------------------9-----------------|
G|---------------------------------------------10-7------------|
D|--------------------------------------------------9-6--------|
A|------------------------------------------------------8p6-7~-|
E|-------------------------------------------------------------|



************************************

| h   Hammer-on
| p   Pull-off
| br  Bend release
| pbr Prebend release
| /   Slide up
| \   Slide down
| ~   Vibrato

************************************
Suggest correction
Give kudos to tab author, rate the tab!
1 2 3 4 5
comments
print report bad tab
guest
You may want to rate the tab now too:
select rating
Wanna post a correction for this tab? Suggest correction