Oops, an error
Loading. Please wait.

Hiljaisuus tab

2,776 views 81 this week
no commentswrite comment
1 2 3 4 5
1 last vote to show rating
add to favorites
×
Save as Personal and add changes to this tab that will be seen only by you. Learn more ›
×
You can save this tab as Personal to edit and correct it or add notes. All changes will be seen only by you. Learn more »
launch autoscroll
font size
0
reset
how to read this tab
guitar tuner
edit
Autoscroll
slow
fast
+/-
esc
set tempo
stop
About this tab version
Tabs, chords and lyrics for the whole song. Was this info helpful? Yes No
Samu - Hiljaisuus (Vain elämää kausi 6) - 2017


[Intro]
   G
e|---10---10---10---10-|---10---10---10---10-|
B|---8----8----8----8--|---8----8----8----8--|
G|-0----0----0----0----|-0----0----0----0----|
D|---------------------|---------------------|
A|---------------------|---------------------|
E|---------------------|---------------------|


[Verse 1]
   G                     C                 G
e|---10---10---10---10-|---8---8---8---8-|---10---10---10---10-|---10---10---10---10-|
B|---8----8----8----8--|---5---5---5---5-|---8----8----8----8--|---8----8----8----8--|
G|-0----0----0----0----|-0---0---0---0---|-0----0----0----0----|-0----0----0----0----|
D|---------------------|-----------------|---------------------|---------------------| (x2)
A|---------------------|-----------------|---------------------|---------------------|
E|---------------------|-----------------|---------------------|---------------------|
Mä kuulen           eteisestä      askeleet                                     Sä
   viereen kaadut,        tilaa siihen    teet

   D                     C                 D                     C
e|---10---10---10---10-|---8---8---8---8-|---10---10---10---10-|---8---8---8---8-|
B|---7----7----7----7--|---5---5---5---5-|---7----7----7----7--|---5---5---5---5-|
G|-0----0----0----0----|-0---0---0---0---|-0----0----0----0----|-0---0---0---0---|
D|---------------------|-----------------|---------------------|-----------------|
A|---------------------|-----------------|---------------------|-----------------|
E|---------------------|-----------------|---------------------|-----------------|
Et sano            sanaakaan, sä           tuijotat  mun         niskaa vaan

   G                     C                 G
e|---10---10---10---10-|---8---8---8---8-|---10---10---10---10-|---10---10---10---10-|
B|---8----8----8----8--|---5---5---5---5-|---8----8----8----8--|---8----8----8----8--|
G|-0----0----0----0----|-0---0---0---0---|-0----0----0----0----|-0----0----0----0----|
D|---------------------|-----------------|---------------------|---------------------|
A|---------------------|-----------------|---------------------|---------------------|
E|---------------------|-----------------|---------------------|---------------------|
Samalla kun mä           leikin     nukkuvaa                                2. Liian


[Verse 2]
   G                     C               G
e|---10---10---10---10-|---8---8---8---8-|---10---10---10---10-|---10---10---10---10-|
B|---8----8----8----8--|---5---5---5---5-|---8----8----8----8--|---8----8----8----8--|
G|-0----0----0----0----|-0---0---0---0---|-0----0----0----0----|-0----0----0----0----|
D|---------------------|-----------------|---------------------|---------------------| (x2)
A|---------------------|-----------------|---------------------|---------------------|
E|---------------------|-----------------|---------------------|---------------------|
   usein kaipaan        niitä     hetkiä                                   Et saisin
   yksin           nukahtaa    ja herätä

   D                     C                 D                     C
e|---10---10---10---10-|---8---8---8---8-|---10---10---10---10-|---8---8---8---8-|
B|---7----7----7----7--|---5---5---5---5-|---7----7----7----7--|---5---5---5---5-|
G|-0----0----0----0----|-0---0---0---0---|-0----0----0----0----|-0---0---0---0---|
D|---------------------|-----------------|---------------------|-----------------|
A|---------------------|-----------------|---------------------|-----------------|
E|---------------------|-----------------|---------------------|-----------------|
Ei tarvis         jännittää           ja  sisintänsä             selvittää    Kun

   G                     C                 G
e|---10---10---10---10-|---8---8---8---8-|---10---10---10---10-|---10---10---10---10-|
B|---8----8----8----8--|---5---5---5---5-|---8----8----8----8--|---8----8----8----8--|
G|-0----0----0----0----|-0---0---0---0---|-0----0----0----0----|-0----0----0----0----|
D|---------------------|-----------------|---------------------|---------------------|
A|---------------------|-----------------|---------------------|---------------------|
E|---------------------|-----------------|---------------------|---------------------|
ei sitä          ymmärrä          itsekään


[Chorus]
   G           C         G        C
Mä tiedän, sun on vaikee ymmärtää
    G           C          D        C
Haluan sun lähelle, mut en että kosket
         G          C         G        C
Joo, ja, voi kun se riittäisi sullekin
         G                  C           G
Niin tää kaikki vois jatkuu paljon helpommin


[Verse 3]
   G                     C                 G
e|---10---10---10---10-|---8---8---8---8-|---10---10---10---10-|---10---10---10---10-|
B|---8----8----8----8--|---5---5---5---5-|---8----8----8----8--|---8----8----8----8--|
G|-0----0----0----0----|-0---0---0---0---|-0----0----0----0----|-0----0----0----0----|
D|---------------------|-----------------|---------------------|---------------------| (x2)
A|---------------------|-----------------|---------------------|---------------------|
E|---------------------|-----------------|---------------------|---------------------|
   Mulle tämä           syvä       hiljaisuus
On parempi kuin         huono valhe       uus                                 En voi

   D                     C                 D                     C
e|---10---10---10---10-|---8---8---8---8-|---10---10---10---10-|---8---8---8---8-|
B|---7----7----7----7--|---5---5---5---5-|---7----7----7----7--|---5---5---5---5-|
G|-0----0----0----0----|-0---0---0---0---|-0----0----0----0----|-0---0---0---0---|
D|---------------------|-----------------|---------------------|-----------------|
A|---------------------|-----------------|---------------------|-----------------|
E|---------------------|-----------------|---------------------|-----------------|
   sanoo      suoraan___kaan, et          joo, edelleen         ahdistaa      Kun

   G                     C                 G
e|---10---10---10---10-|---8---8---8---8-|---10---10---10---10-|---10---10---10---10-|
B|---8----8----8----8--|---5---5---5---5-|---8----8----8----8--|---8----8----8----8--|
G|-0----0----0----0----|-0---0---0---0---|-0----0----0----0----|-0----0----0----0----|
D|---------------------|-----------------|---------------------|---------------------|
A|---------------------|-----------------|---------------------|---------------------|
E|---------------------|-----------------|---------------------|---------------------|
me sitä jäätäis          sitten      kelaamaan


[Chorus]
   G           C         G        C
Mä tiedän, sun on vaikee ymmärtää
       G           C          D        C
Mä haluan sun lähelle, mut en että kosket
         G          C         G        C
Joo, ja, voi kun se riittäisi sullekin
         G                  C           G
Niin tää kaikki vois jatkuu paljon helpommin

                         C          G         C
Oo-o-oo, mut hei, ei tää oo helppoo mullekaan
     G         C          D         C
Enkä pysty sanomaan, mikä mieltä painaa
            G         C        G            C
Joo, ja, mä tiedän ettet jaksa kovinkaan kauaa
    G             C              G
Tää hiljaisuus taitaa meidät tappaa
   (G)
Tää hiljaisuus taitaa meidät tappaa


**************************************
( ) = optional: play the chord or N.C.

            
            
Suggest correction
Creating personal tab
Creating personal tab
You can edit any tab online and save it as your Personal.

You can edit, replace or remove any tab part or add personal notes – all changes will be seen only by you.

Personal tabs can be accessed anytime from any device, even offline.
Learn more »
Give kudos to tab author, rate the tab!
1 2 3 4 5
comments
print report bad tab
guest
You may want to rate the tab now too:
select rating
Wanna post a correction for this tab? Suggest correction