Oops, an error
Loading. Please wait.

Helmi Tab

212 views 1 this week
no commentswrite comment
1 2 3 4 5
please rate
add to favorites
launch autoscroll
font size
0
reset
how to read this tab
guitar tuner
Tab Pro tools
  • play this tab
  • loop segment
  • change instrument
  • show fretboard
  • metronome
×
Best way to learn
"Helmi"
Autoscroll
slow
fast
+/-
esc
set tempo
stop
Contributor
Difficulty
intermediate
-------------------------------------------------------------------------
                             HELMI – Samuli Edelmann
-------------------------------------------------------------------------
Tabbed by: Kengus

Standard tuning

INTRO
   Dm       Am/C     F        A        Bbmaj7       BbM#11
e|-----1--------0-----------------------------------------0------|
B|-----3--------1--------1--------2----------3----------3---3----|
G|---2---2----2---2------2--------2--------2---2------2-------2--|
D|-0-------------------3---3----2---2----3-------3---------------|
A|----------3-----------------0--------1------------1------------|
E|-------------------1-------------------------------------------|

VERSE I, II, III
   Dm       Am/C     Bb       F        Gm11         Asus4   A  Bb
e|-----1--------------------------------------------------0--------------|
B|-----3--------1--------3--------1----------1----------3---2------3-----|
G|---2---2----2---2------3--------2--------3---3-------------------3-----|
D|-0-------------------3---3----3---3----3-------3----2----------3---3---|
A|----------3--------1------------------------------0----------1---------|
E|----------------------------1--------3---------------------------------|
   C5       F C/E D5 Gm11         Asus4   A
e|--------------------------------------0----|
B|-----1----1--1--3--------1----------3---2--|
G|---0---0--2--0--2------3---3---------------|
D|----------3--2--0----3-------3----2--------|
A|-3------------------------------0----------|
E|----------1--0-----3-----------------------|

CHORUS I
   Bb       C5       F              Gm11     A        Dm
e|---------------------------1---------------------0--------0-1-0------|
B|-----3--------1----------1---1----------1------2--------3-------3----|
G|-----3------0---0------2-------2------3---------------2-----------2--|
D|---3---3-------------3--------------3--------2------0----------------|
A|-1--------3--------------------------------0-------------------------|
E|-------------------1--------------3----------------------------------|
   Bb       C5       F C/E Bbmaj7 Gm11         Asus4   A
e|---------------------------------------------------0----|
B|-----3--------1----1--1--3------------1----------3---2--|
G|-----3------0---0--2--0--2----------3---3---------------|
D|---3---3-----------3--2--3--------3-------3----2--------|
A|-1--------3--------------1-------------------0----------|
E|-------------------1--0---------3-----------------------|

VERSE II (verse pattern)

CHORUS II (chorus I pattern)

INTERLUDE (intro pattern)

VERSE III (verse pattern)

CHORUS III
   Bb       C5       F                Gm11     Asus4 A  Dm
e|---------------------------1--------------------------------0-1-0------|
B|-----3--------1--------1-----1------------1------3-2------3-------3----|
G|-----3------0---0----2---2-----2--------3---------------2-----------2--|
D|---3---3-------------------------3----3--------2------0----------------|
A|-1--------3----------------------------------0-------------------------|
E|-------------------1----------------3----------------------------------|
   Bb       C5       F C/E Bbmaj7  Gm11         Asus4   A
e|----------------------------------------------------0----|
B|-----3--------1----1--1--3-------------1----------3---2--|
G|-----3------0---0--2--0--2-----------3---3---------------|
D|---3---3-----------3--2--3---------3-------3----2--------|
A|-1--------3--------------1--------------------0----------|
E|-------------------1--0----------3-----------------------|

OUTRO
   Dm       Am/C     F        A        Bbmaj7       BbM#11
e|-----1--------0-----------------------------------------0-1-0-----|
B|-----3--------1--------1--------2----------3----------3-------3---|
G|---2---2----2---2------2--------2--------2---2------2-----------2-|
D|-0-------------------3---3----2---2----3-------3------------------|
A|----------3-----------------0--------1------------1---------------|
E|-------------------1----------------------------------------------|
   Dm       Am/C     F        A        D5
e|-----1--------0-------------------------|
B|-----3--------1--------1--------2----3--|
G|---2---2----2---2------2--------2----2--|
D|-0-------------------3---3----2---2--0--|
A|----------3-----------------0-----------|
E|-------------------1--------------------|

***

INTRO
Dm  Am/C  F  A  Bbmaj7  BbM#11

VERSE I
Dm        Am/C Bb        F  Gm11                   Asus4   A
    Sinussa on salalokero,       siellä yö ja aurinko
     Bb            C5            F      C/E   D5 
Kajastus sun silmistä, se näkyy, vaikket ymmärrä
   Gm11                      Asus4   A
Se näkyy, vaikket vielä ymmärrä

CHORUS I
Bb       C5             F             Gm11          A           Dm
   Maininkeihin suureen veteen täytyy uskaltaa, kun ranta tulee eteen
     Bb        C5       F      C/E    Bbmaj7
Ehkä ajelehdin saareen, törmään sateenkaareen
       Gm11                    Asus4   A
Löydän helmen, joka sinullakin on

VERSE II
Dm        Am/C Bb         F  Gm11                  Asus4   A
    Sinussa on huone valoisa,     siinä takka valkea
     Bb          C5        F     C/E   D5
Kyynelissä varsinkin valo hohtaa kauneimmin
   Gm11                   Asus4  A
Se valo hohtaa läpi kauneimmin

CHORUS II
Bb       C5             F             Gm11          A           Dm
   Maininkeihin suureen veteen täytyy uskaltaa, kun ranta tulee eteen
     Bb        C5       F      C/E    Bbmaj7
Ehkä ajelehdin saareen, törmään sateenkaareen
       Gm11                    Asus4   A
Löydän helmen, joka sinullakin on

INTERLUDE
Dm  Am/C  F  A  Bbmaj7  BbM#11

VERSE III
Dm        Am/C Bb        F   Gm11                       Asus4   A
    Sinussa on sali juhlavin,     ja pöydät upein kattauksin
      Bb          C5              F      C/E  D5
Aina, kun sä hymyilet, mä melkein kuulen sävelet
   Gm11                     Asus4  A
Mä melkein kuulen juhlasävelet

CHORUS III
Bb       C5             F             Gm11          A           Dm
   Maininkeihin suureen veteen täytyy uskaltaa, kun ranta tulee eteen
     Bb        C5       F      C/E    Bbmaj7
Ehkä ajelehdin saareen, törmään sateenkaareen
       Gm11                    Asus4   A
Löydän helmen, joka sinullakin on

OUTRO
Dm  Am/C  F  A  Bbmaj7  BbM#11

Dm  Am/C  F  A  D5

=========================================================================
comments
We did not receive enough feedback on this tab! Please rate:
print report bad tab
1 2 3 4 5
I want to post or [tab]
guest
You may want to rate the tab now too:
select rating
Please do not post tabs as comments. Select "correction" instead!