Oops, an error
Loading. Please wait.

Barman Bass

112 views 1 this week
no commentswrite comment
1 2 3 4 5
3 more votes to show rating
add to favorites
launch autoscroll
font size
0
reset
guitar tuner
×
Best way to learn
"Barman"
Autoscroll
slow
fast
+/-
esc
set tempo
stop
HOL@!!!!!

aqui llegue otra vez con una cancion pa' gozar
ahi les va:

*RIFF 1

G-------------------------------------|-----------------------|
D-------------------------------------|5-3-2-0----------------|
A--3--3--3--3-------------------------|--------3-3-------2-3--|
E--------------3--3--3--3--5--5--5--5-|------------1-3-5------|

G-----------------------------------------------|
D-----------------------------------------------|
A--3--3--3--------------------------------------| x 2
E-----------3--3--3--3--5--5--5--5--1--1--3--3--|


"este primer Riff se utiliza para el 1er intro y la 1a estrofa"

Luego Va:

*RIFF 2

G-------------------------------------|-----------------------|
D-------------------------------------|5-3-2-0----------------|
A--3--3--3--3-------------------------|--------3-3-------2-3--|
E--------------3--3--3--3--5--5--5--5-|------------1-3-5------|

aqui se repite asi:

*RIFF 1 x 1
*RIFF 2 x 1

y despues entra con energia:


*RIFF 3

G----------------------------------------------|
D----------------------------------------------|
A--3-3-3-3h5p-3-3-3-3h5p-----------------------|
E------------------------3-3-3-3h5p-3-3-3-3h5p-|

G-------------------------------------------|
D-------------------------------------------|
A-------------------------------------------| x 3
E--5-5-5-5-5-5-5-5-5-5-1-1-1-1-1-3-3-3-3-3--|

aqui sigue:

*RIFF 1 x 1
*RIFF 4 hasta que termine la cancion

"Cabe notar que el bajo simpre va al ritmo del Bombo ya
que en los intro las guitarras van a destiempo"

espero les guste....

Ya saben escriban Wireblujo@
Suggest correction
Give kudos to tab author, rate the tab!
1 2 3 4 5
comments
print report bad tab
guest
You may want to rate the tab now too:
select rating
Wanna post a correction for this tab? Suggest correction