Oops, an error
Loading. Please wait.

Barman Tab

version 2
version 2

Whole song

104 views 3 this week
no commentswrite comment
1 2 3 4 5
3 more votes to show rating
add to favorites
launch autoscroll
font size
0
reset
how to read this tab
guitar tuner
×
Best way to learn
"Barman"
Autoscroll
slow
fast
+/-
esc
set tempo
stop
HOLA A TODOS

El tab anterior está muy bien hecho claro que le hacian falta
los solos de las trompetas y ps con esto ya queda lista esta
buena rola para que se diviertan con un muy buen temita de una
exelente banda colombiana.
12345678912345678912312345678912345612378912345678912345+789123456789123456
!"·$$%&  PoWeR____CoLoMbIaNo  !"·$%&

//con este solo completamos la parte de las trompentas//

Intro:


e-10-8-8-12-13-12-10------8----8------------8----8~--8-12-10-8-8-10-8-
b--------------------8-10---10---10~---8-10---10----------------------
g---------------------------------------------------------------------
D---------------------------------------------------------------------
A---------------------------------------------------------------------
E---------------------------------------------------------------------


e-8-12-13-12-10------8----10B----12-10-8-8-10-8------
b---------------8-10---10----------------------------
g----------------------------------------------------
D----------------------------------------------------
A----------------------------------------------------
E----------------------------------------------------

//escuchen con atencion el principio de la cancion
y guiense con este tab para obtener un 100x100to de
exactitud//

Notaaaaa...
La guitarra, maneja 3 tipos de ritmo...
(1) Intro - Ska (en destiempo)
(2) Estrofas - una especie de apagado (a tiempo con el bajo)
(3) Solo, Coro y Outro - balada pop??? (rapida a tiempo)


Intro
*C* Este Do Mayor, solo se escucha en este corte, q va al
principio

(1)

C - G - Am - (F - G) x2


(2)

C                    G
barman ni una copa mas
              Am                 (F  G)
la misma cancion y no me hable mas que voy a vomitar
C                G
Es!, la enesima vez                         Intro
            Am               (F   G)        C - G - Am - (F - G)
Que oigo decir pobre borrachin, andate a dormir.


Yo!, no puedo aceptar
El problema que hay, entre el trago y yo por una mujer
Que!, no es la mejor, que me cautivo quien sabe con que,
                  Intro
intriga hasta hoy.


(3)

Solo
    C          G         Am           (F    G)
e----------------------------------------------
b--------------------------------------8-------
g--2s5-5-5-5-7s9-7-----5---5---5---7s9---9h7-5~
D------------------5-7---7---7---7-------------
A----------------------------------------------
E----------------------------------------------


Coro
C              G
Ya no siento ganas
                    Am
Ya no quiero mas alcohol
             F           G          C
Ya me da lo mismo que estes aqui o no
              G
Ya no siento ganas
                    Am
Ya no quiero compación,
             F            G
Ya me da lo mismo este juego termino!


Yo!, que era el mejor
Haciendo el amor y me lo crei... machito cabron
Yo!, soy el cachon el rey de este bar que vive de mi, es todo por hoy.

C - G - Am - (F - G)

OUTRO SOLO DE CORTESIA

e-17B-15----12-15-17/19-17-15-15h17h15----15...
b--------17----------------------------17------
g----------------------------------------------
D----------------------------------------------
A----------------------------------------------
E----------------------------------------------

e-15h17h15----15h17h15----15h17h15----15h17h15----
b---------17----------17----------17----------17~-
g-------------------------------------------------
D-------------------------------------------------
A-------------------------------------------------
E-------------------------------------------------

los ... significan que se toca la cuerda varias veses
a tiempo de semicorcheas... osea toquenla rapido 8 veses


Coro:
C              G
ya no siento ganas
                    Am
Ya no quiero mas alcohol
             F           G          C
ya me da lo mismo que estes aqui o no
              G
ya no siento ganas
                    Am
Ya no quiero compación,
             F            G
ya me da lo mismo este juego termino.


Outro
C                    G
barman ni una copa mas
              Am                 (F  G)
la misma cancion y no me hable mas que voy a vomitar
C          C-B-A  G
Es!, la enesima vez                           Outro
            Am               (F   G)          C - G - Am - (F - G)        C
Que oigo decir pobre borrachin, andate a dormir.

AGREGO UN CORTE AL FINAL QUE ESCUCHE EN UNA VERSION LIVE Y ME PARECIO UNA
CHIMBA PARA AGREGARLO.... TOQUEN EL CORO CON DISTORCION Y YA VERAN
LO BIEN QUE SUENA.... GRACIAS
****Tener un ideal en la vida es tener una razón para vivir****
Suggest correction
Give kudos to tab author, rate the tab!
1 2 3 4 5
comments
print report bad tab
guest
You may want to rate the tab now too:
select rating
Wanna post a correction for this tab? Suggest correction