Oops, an error
Loading. Please wait.

Awkward Bass Tab

version 2
version 2

Whole song

1,553 views 3 this week
no commentswrite comment
1 2 3 4 5
x 6
add to favorites
launch autoscroll
font size
0
reset
guitar tuner
Autoscroll
slow
fast
+/-
esc
set tempo
stop
Help us to improve Ultimate-Guitar.com Take our survey!
×
Author
Difficulty
novice
G-----------------------------------------------------------------|
D-7/4--44-4-4-44-----4-44-4-4-44------------------7---------------|
A-----------------------------------------------------------------|
E-----------------2---------------2/5--55-5-5-55-----5-55-5-5-55--|
Play 5 times then

G----------------------------------------------------------------------|
D-7/4--44-4-4-44-----4-44-4-4-44------------------7---------------7/4~-|
A----------------------------------------------------------------------|
E-----------------2---------------2/5--55-5-5-55-----5-55-5-5-55-------|

Rest

G-----------------------------------------------------------------|
D-----------------7---------------7/4--44-4-4-44-----4-44-4-4-44--|
A-----------------------------------------------------------------|
E-2/5--55-5-5-55-----5-55-5-5-55------------------2---------------|
Play 3 times then

G---------------------------------------------------------------------|
D-----------------7---------------7/4--44-4-4-44-----4-44-4-4-44------|
A---------------------------------------------------------------------|
E-2/5--55-5-5-55-----5-55-5-5-55------------------2---------------2/5-|

Play the song in staccato

(This is my first tab so please comment and tell me how i did)
Suggest correction
comments
print report bad tab
guest
You may want to rate the tab now too:
select rating
Wanna post a correction for this tab? Suggest correction