Oops, an error
Loading. Please wait.

Reckless tab

version 2
version 2

Whole song

475 views 6 this week
no commentswrite comment
1 2 3 4 5
x 4
add to favorites
×
Save as Personal and add changes to this tab that will be seen only by you. Learn more ›
×
You can save this tab as Personal to edit and correct it or add notes. All changes will be seen only by you. Learn more »
launch autoscroll
font size
0
reset
how to read this tab
guitar tuner
edit
Autoscroll
slow
fast
+/-
esc
set tempo
stop
-------------------------------------------------------------------------------
                             Reckless - San Cisco 
-------------------------------------------------------------------------------
Tabbed by: alana4211

There's already a tab on this and most of it is really good but I just fixed up a few parts.

Tuning:Standard Tuning 
Capo: 6th fret 

Chords: 
Am*          
e|---0----|    
B|---3----|
G|---4----|
D|---4----|
A|---0----|
E|---0----|

C* 
e|---0----|
B|---3----|
G|---0----|
D|---4----|
A|---5----|
E|---0----|

Intro:
e|-----------------------|
B|-----------------------|
G|-----------------------|
D|----2---2---2---2------| x4
A|--3---3---3---3--------|
E|-----------------------|

Verse: 
   Am              Em               C   
e|---------------------------------------------------------------------------|
B|---------------------------------------------------------------------------|
G|----------------------------------------0---------------0------------------|
D|----2---2---2---2---2---2---2---2---2------2---2----2-------2---2----------| x4
A|--0---0---0---0---2---2---2---2---3---3---3---3---3---3---3---3------------|
E|---------------------------------------------------------------------------|

Your someone that I'm gonna miss
Because all of the loving in the world
Well I wouldn't mind loving that girl
No I wouldn't mind loving that girl

Chorus:
        Am         F        C              G             Am 
'Cause reckless is fun when you're not the one that gets hurt
        Am         F        C              G             Am 
'Cause reckless is fun when you're not the one that gets hurt

Solo:
E|---------0--------------3--------------3-----0---0------------------------|
B|-----------1------------0--3----------0--------1--------------------------|
G|---------------------------0------------0---------------------------------|
D|----2--------------2------------------------------------------------------|
A|--3--3----------3---3---------2~3-----------------------------------------|
E|--------------------------------------------------------------------------|

Verse:
  Am              Em               C  
e|---------------------------------------------------------------------------|
B|---------------------------------------------------------------------------|
G|----------------------------------------0---------------0------------------|
D|----2---2---2---2---2---2---2---2---2------2---2----2-------2---2----------| x5
A|--0---0---0---0---2---2---2---2---3---3---3---3---3---3---3---3------------|
E|---------------------------------------------------------------------------|

Put all my thoughts into a jar
Hide it away somewhere so far
The thoughts, the things I thought I knew
And you could fit right in there too
You could fit right in there too

Chorus: 
        Am         F        C              G             Am 
'Cause reckless is fun when you're not the one that gets hurt
        Am         F        C              G             Am 
'Cause reckless is fun when you're not the one that gets hurt

                 Am             F
'Cause when your hearts in your mouth
         C            G
And your guts on the ground
           Am          F             C     G
And you've got nothing left from the chest down
    Am           F              C         G
And something is nothing 'cause what you had
    Am        F       C          G   Am
Was so much, so much better than that

Bridge (repeat twice): Am, Am* x3 
                       C,C* x1 

(no chords) 
'Cause reckless is fun when you're not the one that gets hurt

Instrumental: Am, F, C, G x2

                 Am             F
'Cause when your hearts in your mouth
         C            G
And your guts on the ground
           Am          F             C     G
And you've got nothing left from the chest down
    Am           F              C         G
And something is nothing 'cause what you had
    Am        F       C          G   Am
Was so much, so much better than that

Outro: Am, Am7 x3 

e|--1---0---0---|
B|--1---1---1---|
G|--2---0---0---|
D|--3---2---0---| 
A|--3---2---2---|
E|--1---0---0---|
Suggest correction
Creating personal tab
Creating personal tab
You can edit any tab online and save it as your Personal.

You can edit, replace or remove any tab part or add personal notes – all changes will be seen only by you.

Personal tabs can be accessed anytime from any device, even offline.
Learn more »
comments
print report bad tab
guest
You may want to rate the tab now too:
select rating
Wanna post a correction for this tab? Suggest correction