Oops, an error
Loading. Please wait.

Wild Things Tab

3,599 views 3 this week
2 commentsread comments
1 2 3 4 5
accurate
x 3
add to favorites
launch autoscroll
font size
0
reset
how to read this tab
guitar tuner
Tab Pro tools
  • play this tab
  • loop segment
  • change instrument
  • show fretboard
  • metronome
×
Best way to learn
"Wild Things"
Autoscroll
slow
fast
+/-
esc
set tempo
stop
Difficulty
intermediate
Artist: San Cisco
Song: Wild Things

I couldn't find this anywhere so I decided to watch some live videos and make my own 
tab! Well, I'll keep updating it so I can eventually tab the whole song. Let me know what 
you think about this tab (errors/additions?) meli.carrillo9@Hotmail.com

Chords Used Throughout the Song:

xx998x (B minor shape)

x776xx (F chord shape)

xx767x

x554xx (F chord shape)


E|-x-x---x----x-x-x---x-x---|-x-x---x----x-x-x---x-x-|
B|-8-8---x----8-8-8---x-x---|-x-x---x----x-x-x---x-x-|
G|-9-9---x----9-9-9---x-x---|-6-6---x----6-6-6---x-x-|
D|-9-9---x----9-9-9---x-x---|-7-7---x----7-7-7---x-x-|
A|-x-x---x----x-x-x---x-x---|-7-7---x----7-7-7---x-x-|
E|-x-x---x----x-x-x---x-x---|-x-x---x----x-x-x---x-x-|


E|-x-x---x----x-x-x---x-x---|-x-x---x----x-x-x---x-x-|
B|-x-x---x----x-x-x---x-x---|-x-x---x----x-x-x---x-x-|
G|-7-7---x----7-7-7---x-x---|-4-4---x----4-4-4---x-x-|
D|-6-6---x----6-6-6---x-x---|-5-5---x----5-5-5---x-x-|
A|-7-7---x----7-7-7---x-x---|-5-5---x----5-5-5---x-x-|
E|-x-x---x----x-x-x---x-x---|-x-x---x----x-x-x---x-x-|


© MCG
comments
We did not receive enough feedback on this tab! Please rate:
print report bad tab
1 2 3 4 5
2 comments total.
0 reply
JamesHPRoberts wrote on January 16 2013, 05:09 am

I'm hanging for the rest of this tab, good work so far though :-)

0 reply
pdrok2 wrote on February 8 2013, 05:36 am

yeah, there's a modulation in the "outro" part of the song, so I'm rating 2 as long as you don't finish the tab

I want to post or [tab]
guest
You may want to rate the tab now too:
select rating
Please do not post tabs as comments. Select "correction" instead!