Oops, an error
Loading. Please wait.

Caemos O Volamos Tab

53 views 1 this week
no commentswrite comment
1 2 3 4 5
3 more votes to show rating
add to favorites
launch autoscroll
font size
0
reset
how to read this tab
guitar tuner
Autoscroll
slow
fast
+/-
esc
set tempo
stop
Help us to improve Ultimate-Guitar.com Take our survey!
×
INTRO: Dm, Dm, F, F, Gm, Gm, F, F
       Dm, Dm, F, F, Gm, Gm, F, A

                Dm
¿Qué tanto eres tú?

¿qué tanto soy yo?
                     F
¿qué tanto nuestras manos o  su imaginación?
        Gm                    F
¿a dónde vamos cada paso que damos?

        Dm
Nos inventamos sin dejar rastro
          F
no hay arriba, no hay abajo,
        Gm              F    A
de las miradas nos agarramos.

           Dm
Caemos o volamos,

¿cómo saber?
                F
hasta tocar el suelo y volverte a ver
         Gm                          F
nos descubriremos en el amor o el placer


           Dm
Caemos o volamos,

¿cómo saber?
                 F
hasta sentir el cielo entre nuestro pies
       Gm              F     A
desnudaremos nuestros apegos

solo
    F             A7           Dm
e|------------------------------------|
B|--10-8------------------------------|
G|-------10-12-10-9-10-9-7-9-7-5-7/19-|
D|------------------------------------|
A|------------------------------------|
E|------------------------------------|

   Dm                   Gm
e|---5-----5-----55--------------------------
B|-----6-----6------6-----8-----8-----88-----
G|-7-----7-----7------7-----7-----7------7---
D|----------------------8-----8-----8------8-
A|-------------------------------------------
E|-------------------------------------------
   A                    Dm
--------------------------------5-----5-----55-----|
----10------10------1010----------6-----6------6---|
-------9-------9---------9----7-----7-----7------7-|
-11------11------11--------11----------------------|  x2
---------------------------------------------------|
---------------------------------------------------|


                  Dm
Suspendidos en el tiempo si razón,
                   F
no hay pasado ni futuro,
                                  Gm
sólo el aliento que nos damos día a día
            F
con el corazón

     Dm
Cada beso un precipicio
         F
al que caemos donde no hay fondo,
           Gm
sólo hay momentos
               F
en que nos perdemos


          Dm
Caemos o volamos,

¿cómo saber?
                F
hasta tocar el suelo y volverte a ver
         Gm                          F
nos descubriremos en el amor o el placer

           Dm
Caemos o volamos,

¿cómo saber?
                 F
hasta sentir el cielo entre nuestro pies
       Gm              F     A
desnudaremos nuestros apegos


Final
    F              A7           Dm
e|----------------------------------|
B|--10-8----------------------------|
G|-------10-12-10-9-10-9-7-9-7-5-77-|
D|----------------------------------|
A|----------------------------------|
E|----------------------------------|    x2

   Dm
e|------------------------------------------------------------|
B|-13/7-7/9-10------------------------------------------------|
G|-------------10h-9h-7h-5h-------7/10h-9h-7h-5h--------------|
D|--------------------------6h-7h----------------6h-7h-9h-12h-|
A|------------------------------------------------------------|
E|------------------------------------------------------------|
Suggest correction
Give kudos to tab author, rate the tab!
1 2 3 4 5
comments
print report bad tab
guest
You may want to rate the tab now too:
select rating
Wanna post a correction for this tab? Suggest correction